Song name
# A B C D E F G H I J K L M N O P Q R S T U V W X Y Z

The Hiatus - Ghost In The Rain tab

Tabbed by: malphranky
Email: malphranky@sbcglobal.net


Very Important!!!! Listen to song for timing.

Tuning: Standard

Intro: After a little piano

Rhythm:

e|------------------------------------------------------|
B|------------------------------------------------------|
G|-7777777-99999999-----------77777777777---------------|
D|-7777777-99999999-999999999-77777777777---------------|
A|-5555555-77777777-999999999-55555555555---------------|
E|------------------777777777---------------------------|
   ******* ******** ********* *******

e|------------------------------------------------------|
B|------------------------------------------------------|
G|------------------------------------------------------|
D|55555555555-7~----------------------------------------|
A|55555555555-7~----------------------------------------|
E|33333333333-5~----------------------------------------|

Lead:

e|----5------------------------|----5-----5~-------------|
B|-7------7----5------7--------|--7----7--5~-------------|
G|--7---7---7----7---7-7-------|---7--7-7-7~-------------|
D|-----------------5-----------|----------5~-------------|
A|-----------------------------|-------------------------|
E|-----------------------------|-------------------------|
            2x                    then this

Verse:

e|------------------------------------------------------|
B|------------------------------------------------------|
G|------------------------------------------------------|
D|-777777-777-777-7\-999999-999-999-9-------------------|  4X
A|-777777-777-777-7\-999999-999-999-9-------------------|
E|-555555-555-555-5\-777777-777-777-7-------------------|
   ****** *** *** *  ****** *** *** *


Chorus:

e|------------------------------------------------------|
B|------------------------------------------------------|
G|-77777777---------------------------------------------|
D|-77777777-555555555--444444444-777777777--------------|  2X
A|-55555555-555555555--555555555-777777777--------------|
E|----------333333333--222222222-555555555--------------|


Post-Chorus:

e|-------------------------------------|--5~-----------------|
B|-------------------------------------|--5~-----------------|
G|-----------------------------7777777-|--7~-----------------|
D|-555555555-9999999-777777777-7777777-|--7~-----------------|
A|-555555555-9999999-777777777-5555555-|---------------------|
E|-333333333-7777777-555555555---------|---------------------|
             2x                            end on this


Repeat Verse: Listen to know when to come in
Repeat Chorus

then,

Rhythm:

e|------------------------------------------------------|
B|------------------------------------------------------|
G|-77777777-999999--------77777777-7777777-999999--7~---|
D|-77777777-999999-999999-77777777-7777777-999999--7~---|
A|-55555555-777777-999999-55555555-5555555-777777--5~---|
E|-----------------777777-------------------------------|
   ******** ****** ****** ******** ******* ******
Lead Is same as intro

Piano part,
Repeat chorus,

Outro: first part of post-chorus 3X then:

e|------------------------------------------------------|
B|------------------------------------------------------|
G|------------------------------------------------------|
D|-5555555-9999999-777777777777-5~----------------------|
A|-5555555-9999999-777777777777-5~----------------------|
E|-3333333-7777777-555555555555-3~----------------------|

| /  slide up
| \  slide down
| h  hammer-on
| p  pull-off
| ~  vibrato
| +  harmonic
| x  Mute note
===============================================================================
Tap to rate this tab
 
# A B C D E F G H I J K L M N O P Q R S T U V W X Y Z