Song name
# A B C D E F G H I J K L M N O P Q R S T U V W X Y Z

The Hiatus - The Flare tab

Tabbed by: malphranky

Tuning:Drop D

I'm not sure if this is 100% correct but I'm pretty sure it mostly is.
This is how I play the song.
As always listen to the song very carefully,study the parts and have fun.
the HIATUS is a band that I love with a passion as it has one of my idols (Lead 
guitar Takeshi Hosomi)and this song is just unbelieveable. (Side Note: Most if not all of the 
is down picked.)

First half of Intro: Guitar 1 & 2

e|-------------------------------------------------|
B|-------------------------------------------------|
G|-------------------------------------------------|
D|-00------00------00------------------------------|    2X
A|-00-1212-00-1212-00-13---------------------------|
D|-00-1212-00-1212-00-13---------------------------|

then:
Guitar 1 plays first half of intro 2 more times.

Second Half of Intro:Guitar 2

e|-------------------------------------------------|
B|-------------------------------------------------|
G|-------------------------------------------------|
D|-------------------------------------------------|   2X
A|-------------------------------------------------|
D|-00-1515-00-1515-00-17---------------------------|

Verse:Play until chorus

e|-------------------------------------------------|
B|-------------------------------------------------|
G|-------------------------------------------------|
D|-------------------------------------------------|
A|-------------------------------------------------|
D|-888888888888888-7777777777777777----------------|

Chorus: Guitar 1 & 2

e|-------------------------------------------------|
B|-------------------------------------------------|
G|-------------------------------------------------|
D|-33333333333-55555555555-7777777777--------------| 2X
A|-11111111111-33333333333-5555555555--------------|
D|-------------------------------------------------|

(This part can be very tricky and hard to hear, but just listen closely to the song.This 
100% correct but this is what I play)During the second time around the chrous lead 
plays something similar to this:

e|------------------------------------------------------------------|
B|------------------------------------------------------------------|
G|--------77\5\3/5--------10-10\9\7\5/7--------------7/141414141414-|
D|-333333----------555555---------------7777777777777---------------|
A|-111111-55\3\1/5-333333--8--8\7\5\3/5-55555555555555/121212121212-|
D|------------------------------------------------------------------|

Intro
Verse

Chorus:The only difference with this chorus is that the lead guitar ends the chorus with 
after playing the 12 and 14 on the A and G strings.

e|----------------------------------------------------|
B|----------------------------------------------------|
G|-10~------------------------------------------------|
D|----------------------------------------------------|
A|--8~------------------------------------------------|
D|----------------------------------------------------|

Then Bridge: There is guitar playing while all the feedback is going crazy and the piano 
playing but I can't figure it out. This part is the ending of the bridge that builds up 
the chorus.

e|-------------------------------------------------|
B|-------------------------------------------------|
G|-------------------------------------------------|
D|-333333333-555555555-777777777-------------------| 1X
A|-111111111-333333333-555555555-------------------|
D|-------------------------------------------------|
   ********* ********* *********

Then:

e|-------------------------------------------------|
B|-------------------------------------------------|
G|-------------------------------------------------|
D|-33333333-55555555-7777777777777777777-----------|
A|-11111111-33333333-5555555555555555555-----------|
D|-------------------------------------------------|
   ******** ******** ************

Then Final Chorus:which is same as previous choruses.

Then outro: which is basically the intro but it ends with guitar 1 ending on 13th fret 
the low E string (Which is tuned to a D in this song)
and the guitar 2 ends on the same string but on the 17th fret.

| /  slide up
| \  slide down
| h  hammer-on
| p  pull-off
| ~  vibrato
| +  harmonic
| x  Mute note
===============================================================================
Tap to rate this tab
 
# A B C D E F G H I J K L M N O P Q R S T U V W X Y Z