Song name
# A B C D E F G H I J K L M N O P Q R S T U V W X Y Z

The Hidden Cameras - Builds The Bone tab

This is my frst tab, so sorry if its kinda bad. I'm pretty sure this is CLOSE to the 
song. It sounds good.

standard tuning, capo on 1st fret

e|------------------------------------------|
B|------------------------------------------|
G|-------0--------0-------------------------|
D|---------0--------0-----------------------|
A|-----2--------0---------------------------|
E|---3--------2-----------------------------|        X4


e|----------------------------------------------------------2---------|
B|---------------------------------------------1----------3---3-------|
G|-------0--------0------------------0-------0----0-----2-------2-----|
D|---------0--------0------0------2---2---2--------2-0----------------|
A|-----2--------0-------2---2--0-------3------------------------------|
E|---3--------2--------0----------------------------------------------| repeat
Tap to rate this tab
# A B C D E F G H I J K L M N O P Q R S T U V W X Y Z