Song name
# A B C D E F G H I J K L M N O P Q R S T U V W X Y Z

The High Court - 2 Much Love For 1 Woman tab

-----------------------------------------------------------------------------
		2 Much Love For 1 Woman - The High Court
-----------------------------------------------------------------------------

Tuning: Dropped D

Intro (Guitar 1)
e|--------------------------------------------------------------------------|
B|--------------------------------------------------------------------------|
G|--------------------------------------------------------------------------|
D|-/9-9-9-12-12-12-5-5-9-9-12-12--------------------------------------------|
A|-/9-9-9-12-12-12-5-5-----------10-10-10-----------------------------------|
D|-/9-9-9-12-12-12-5-5------------------------------------------------------|
p.m...............

(Guitar 2)
e|--------------------------------------------------------------------------|
B|--------------------------------------------------------------------------|
G|-14-14-12-11--9-9--9/11/9/7-----------------------------------------------|
D|--------------------------------------------------------------------------|
A|-12-12-10-9---7-7--7/9/7/5------------------------------------------------|
D|--------------------------------------------------------------------------|

First Chorus
e|--------------------------------------------------------------------------|
B|--------------------------------------------------------------------------|
G|--------------------------------------------------------------------------|
D|-----7-9-7-----------5-4--------------------------------------------------|
A|-2-5-------5---7-9--------------------------------------------------------|
D|-------------7-----5------------------------------------------------------|

Second Verse (Guitar 1)
e|--------------------------------------------------------------------------|
B|--------------------------------------------------------------------------|
G|--------------------------------------------------------------------------|
D|-7-7-9--------------------------------------------------------------------|
A|-7-7-9--repeat------------------------------------------------------------|
D|-7-7-9--------------------------------------------------------------------|

Second Verse (Guitar 2) He uses some effect here, i'm not quite sure what
e|--------------------------------------------------------------------------|
B|--------------------------------------------------------------------------|
G|------------11------------------------------------------------------------|
D|-11------------12----9----------------------------------------------------|
A|-----12--9--------12---9--------------------------------------------------|
D|--------------------------------------------------------------------------|

Prechorus
e|--------------------------------------------------------------------------|
B|--------------------------------------------------------------------------|
G|------7-7-----------------------------------------------------------------|
D|-9-9--7-7--5-5------------------------------------------------------------|
A|-9-9--5-5--5-5------------------------------------------------------------|
D|-9-9-------5-5------------------------------------------------------------|

Chorus
e|--------------------------------------------------------------------------|
B|-------------------------------------10p7-10p7-10p7-----------------------|
G|-----------------9/11-----------------------------------------------------|
D|-9-9-9-9-9--9-9--------7-7-7-7--5-5---------------------------------------|
A|-9-9-9-9-9--9-9--7/9---7-7-7-7--5-5---------------------------------------|
D|-9-9-9-9-9--9-9--------7-7-7-7--5-5---------------------------------------|

Third Verse (Guitar 1)
e|--------------------------------------------------------------------------|
B|--------------------------------------------------------------------------|
G|-------7-7-7--------------------------------------------------------------|
D|-9-9-9-7-7-7-5-5-5-5-5-5-5-5----------------------------------------------|
A|-9-9-9-5-5-5-5-5-5-5-5-5-5-5----------------------------------------------|
D|-9-9-9-------5-5-5-5-5-5-5-5----------------------------------------------|

Third Verse (Guitar 2)
e|--------------------------------------------------------------------------|
B|--------------------------------------------------------------------------|
G|-14p11-14p11-14p11-14p11-14p11-------9h11-9h11--14p11-14p11-14p11-14p11---|
D|-------------------------------11h12--------------------------------------|
A|--------------------------------------------------------------------------|
D|--------------------------------------------------------------------------|

e|--------------------------------------------------------------------------|
B|-15p12-14p12-10h12--------------------------------------------------------|
G|-------------------9p7----------------------------------------------------|
D|--------------------------------------------------------------------------|
A|--------------------------------------------------------------------------|
D|--------------------------------------------------------------------------|

Post-Chorus
e|--------------------------------------------------------------------------|
B|--------------------------------------------------------------------------|
G|-----------------7-7-7-7-7-7-7-7------------------------------------------|
D|-9-9-9-9-9-9-9-9-7-7-7-7-7-7-7-7-5-5-5-5-5-5-5-5-5-5-5-5-5-5-5-5----------|
A|-9-9-9-9-9-9-9-9-5-5-5-5-5-5-5-5-5-5-5-5-5-5-5-5-5-5-5-5-5-5-5-5----------|
D|-9-9-9-9-9-9-9-9-----------------5-5-5-5-5-5-5-5-5-5-5-5-5-5-5-5----------|

Bridge
e|--------------------------------------------------------------------------|
B|--------------------------------------------------------------------------|
G|-11~----------------11~-----------------------------------12-12-12-12-12--|
D|-----11-11-9-11-11~-------9-9-9-9-9-----9-9-9-9-9--12-12--12-12-12-12-12--|
A|--------------------------9-9-9-9-9-----9-9-9-9-9--12-12--10-10-10-10-10--|
D|--------------------------9-9-9-9-9-----9-9-9-9-9--12-12------------------|

http://www.thehighcourtrock.com/

Tap to rate this tab
 
# A B C D E F G H I J K L M N O P Q R S T U V W X Y Z