Guitaretab - guitar tabs
Song name
# A B C D E F G H I J K L M N O P Q R S T U V W X Y Z

The Higher - Can Anyone Really Love Young tab

Intro

e|----5------5------3---|
B|----6------6------5---|
G|----7------5------5---|
D|----7------7------5---|
A|----5------5------3---|
E|----------------------|

do you have something to say... 


play with song to figure out strumming/picking pattern


Verse
B                        C                   Dm
Because you know there's something here that matters
B               C                    Am
So baby tell me so I can make things better

So you know that


Chorus
F       
Nothing's important right now 
                  C                    
Besides something beautiful laying face down
B                                  C
Bury your eyes deep in the pillows of wanting more than something that's capable


repeat 2x


[ Tab from: http://www.guitaretab.com/t/the-higher/87189.html ]
e|-----5h6-------------------|
B|---------5-6(slide down)---|
G|---------------------------|
D|---------------------------|
A|---------------------------|
E|---------------------------|

*repeat intro
Will you just give us a shot?
And before you discard our progress
And I know it's asking a lot but seeing you was a promise

*repeat verse
And I'm confident on how my heart decides
Till you decided to go and change your mind
And say that I can't spend the night
Cause you don't want to offend someone else you're dating




e|-------------------|
B|-----5h6-----------|
G|--------5----------|
D|-------------------|
A|-------------------|
E|-------------------|
(second time)
e|-------------------|
B|-----5h6-----------|
G|--------5----------|
D|----------5--------|
A|-------------------|
E|-------------------|

Waiting on a heartbeat
That you've stolen from me
Waiting on a heartbeat
That's making me feel empty

Related for Can Anyone Really Love Young tab