Guitaretab - guitar tabs
Song name
# A B C D E F G H I J K L M N O P Q R S T U V W X Y Z

The Hissyfits - Giant Ants tab

Official Hissyfits site: http://www.hissyfits.com/


Verse:

E:--------------------------------------|
B:--------------------------------------|
G:--------------------------------------|
D:--5--3--2--5---(5)--------------------|
A:--5--3--2--5---(5)--------------------|
E:--3--1--0--3---(3)--------------------|
    ----PM------------------------------|

Just listen to it to figure out the strumming pattern.
This is repeated twice, except the bit in the brackets
which is only played at the end of the first time without
being palm muted.


Chorus:
[ Tab from: http://www.guitaretab.com/t/the-hissyfits/83520.html ]
E:------------------------------|
B:------------------------------|
G:------------------------------|
D:--5--3--2--5------------------|
A:--5--3--2--5------------------|
E:--3--1--0--3------------------|


Solo:

E:-------------------------------------------------------------|
B:-8--10-11--10--8---9--11--8--12--13--15--12--15-15-13--12--8-|
G:-------------------------------------------------------------|

E:----------------------------------------------------------------|
B:-15-12-15-12-15-12--12-12-12-15-15-12---20(x16)-18(x16)-17(x16)-|
G:----------------------------------------------------------------|

This is pretty easy to play, just listen to figure out timing.
After that it goes kinda crazy so that's as far as I get.
But that's generally it. Much fun to play, nevertheless.


And as far as I can tell, the bass tab is just:

D:---------|
A:---------|
E:-3-1-0-3-|

Over and over again, but starts off with a slide at the beginning: 5/3


Enjoy.
Advertisement will be closed in 10 seconds