Song name
# A B C D E F G H I J K L M N O P Q R S T U V W X Y Z

The Hives - Die, All Right! tab

Help us improve GuitareTab! Take a short survey!
-------------------------------------------------------------------------------
                            DIE, ALL RIGHT - The Hives
-------------------------------------------------------------------------------

Tuning is Standard (eBGDAE)

Verse:
e|---------------------------------------------------------------------------|
B|---------------------------------------------------------------------------|
G|----------------4-4-4-4----------------------------------------------------|
D|-2--5--7----5-5-4-4-4-4----------------------------------------------------|
A|-2--5--7----5-5-2-2-2-2----------------------------------------------------|
E|-0--3--5----3-3------------------------------------------------------------|

Pre Chorus:                          Continue 2nd Time
e|---------------------------------  ----------------------------------------|
B|---------------------------------  ----------------------------------------|
G|-5-5-5-5-5-5-5-5-4-4-4-4-4-4-4-4-  -4-4-4-4-4-4-4-4------------------------|
D|-5-5-5-5-5-5-5-5-4-4-4-4-4-4-4-4-  -4-4-4-4-4-4-4-4------------------------|
A|-3-3-3-3-3-3-3-3-2-2-2-2-2-2-2-2-  -2-2-2-2-2-2-2-2------------------------|
E|---------------------------------  ----------------------------------------|

Chorus:
e|---------------------------------------------------------------------------|
B|---------------------------------------------------------------------------|
G|-9-9-9-9-9-9-9--12-12---7-7-7-7-7------------------------------------------|
D|-9-9-9-9-9-9-9--12-12---7-7-7-7-7-----5-5-5-5-5-5-5-5-5-5-7-7-7-7-7--------|
A|-7-7-7-7-7-7-7--10-10---5-5-5-5-5-----5-5-5-5-5-5-5-5-5-5-7-7-7-7-7--------|
E|--------------------------------------3-3-3-3-3-3-3-3-3-3-5-5-5-5-5--------| 

Variation on Chorus:
e|---------------------------------------------------------------------------|
B|---------------------------------------------------------------------------|
G|-9-9-9-9-9-9-9-12-12---7-7-7-7-7-------------------------------------------|
D|-9-9-9-9-9-9-9-12-12---7-7-7-7-7-9-9-9-9-9-9-9-9-9-9-9-9-9-9-9-9-----------|
A|-7-7-7-7-7-7-7-10-10---5-5-5-5-5-9-9-9-9-9-9-9-9-9-9-9-9-9-9-9-9-----------|
E|---------------------------------7-7-7-7-7-7-7-7-7-7-7-7-7-7-7-7-----------|

Bridge
e|---------------------------------------------------------------------------|
B|---------------------------------------------------------------------------|
G|-9-9-9-9-9-9-9-9-9-9-9-9-9-9-9-9-------------------------------------------|
D|-9-9-9-9-9-9-9-9-9-9-9-9-9-9-9-9-9-9-9-9-9-9-9-9-9-9-9-9-9-9-9-9-----------|
A|-7-7-7-7-7-7-7-7-7-7-7-7-7-7-7-7-9-9-9-9-9-9-9-9-9-9-9-9-9-9-9-9-----------|
E|---------------------------------7-7-7-7-7-7-7-7-7-7-7-7-7-7-7-7-----------|

Bridge Cont.
e|---------------------------------------------------------------------------|
B|---------------------------------------------------------------------------|
G|---------------------------------------------------------------------------|
D|-12-12-12-12-12-12-12-12-12-12-12-12-12-12-12-12-10-10-10-10-10-10-10-10---|
A|-12-12-12-12-12-12-12-12-12-12-12-12-12-12-12-12-10-10-10-10-10-10-10-10---|
E|-10-10-10-10-10-10-10-10-10-10-10-10-10-10-10-10--8--8--8--8--8--8--8--8---|

Bridge Cont. 
e|---------------------------------------------------------------------------|
B|---------------------------------------------------------------------------|
G|---------------------------------------------------------------------------|
D|-10-10-10-10-10-10-10-10-10-10-10-10-10-10-10-10---------------------------|
A|-10-10-10-10-10-10-10-10-10-10-10-10-10-10-10-10---------------------------|
E|--8--8--8--8--8--8--8--8--8--8--8--8--8--8--8--8---------------------------|

Bridge Cont.
e|---------------------------------------------------------------------------|
B|---------------------------------------------------------------------------|
G|---------------------------------------------------------------------------|
D|-2-5-7--5-5-9-9-9-9-10-10-10-10-10-10-10-10-9-9-9-9-9-9-9-9-9-9-9-9--------|
A|-2-5-7--5-5-9-9-9-9-10-10-10-10-10-10-10-10-9-9-9-9-9-9-9-9-9-9-9-9--------|
E|-0-3-5--3-3-7-7-7-7--8--8--8--8--8--8--8--8-7-7-7-7-7-7-7-7-7-7-7-7--------|

End
e|--5------------------------------------------------------------------------|
B|--6------------------------------------------------------------------------|
G|--7------------------------------------------------------------------------|
D|--7------------------------------------------------------------------------|
A|--5------------------------------------------------------------------------|
E|---------------------------------------------------------------------------|
Related for Die, All Right! tab