Song name
# A B C D E F G H I J K L M N O P Q R S T U V W X Y Z

The Hives - Main Offender tab

------------------------------------------------------------------------------
			     MAIN OFFENDER - The Hives
------------------------------------------------------------------------------

Intro
e|---------------------------------------------------------------------------|
B|---------------------------------------------------------------------------|
G|-7-x-7-7-7--x-7-7-7--x-7-7-7-----------------------------------------------|
D|-7-x-7-7-7--x-7-7-7--x-7-7-7-----------------------------------------------|
A|-5-x-5-5-5--x-5-5-5--x-5-5-5-----------------------------------------------|
E|---------------------------------------------------------------------------|

Main riff
e|---------------------------------------------------------------------------|
B|---------------------------------------------------------------------------|
G|----------5-7----------5-----------5-7-------5---5-------------------------|
D|-3-5-6-7--3-5--2-3---3-3--3-5-6-7--3-5--2-3--3-3-3-3-5-6-7-----------------|
A|-1-3-4-5-------0-1---1----1-3-4-5-------0-1----1---1-3-4-5-----------------|
E|---------------------------------------------------------------------------|

After main riff before singing        also played quickly before chorus
e|---------------------------------------------------------------------------|
B|---------------------------------------------------------------------------|
G|-7-7-7---------------------------------------------------------------------|
D|-7-7-7---------------------------------------------------------------------|
A|-5-5-5---------------------------------------------------------------------|
E|---------------------------------------------------------------------------|

Chorus
e|---------------------------------------------------------------------------|
B|-------------------------------------after drums 10 press whammy bar down--|
G|------7---------------------10---------------------------------------------|
D|-7----7-x8--3-----5---------10-x6--before-drums----------------------------|
A|-7-x8-5-----3-x8--5-x8------8----------------------------------------------|
E|-5----------1-----3--------------------------------------------------------|

Next pause
e|---------------------------------------------------------------------------|
B|---------------------------------------------------------------------------|
G|---------------------------------------------------------------------------|
D|-2-3-5-5-2-3-5-7-2-3-5-7-2-3-5-7-------------------------------------------|
A|-0-1-3-7-0-1-3-5-0-1-3-5-0-1-3-5-------------------------------------------|
E|---------------------------------------------------------------------------|

I don't know the crazy notes at the end
e|---------------------------------------------------------------------------|
B|---------------------------------------------------------------------------|
G|-7-7-7-7-7-----------------------------------------------------------------|
D|-7-7-7-7-7-----------------------------------------------------------------|
A|-5-5-5-5-5-----------------------------------------------------------------|
E|---------------------------------------------------------------------------|

===============================================================================
Tap to rate this tab
# A B C D E F G H I J K L M N O P Q R S T U V W X Y Z