Song name
# A B C D E F G H I J K L M N O P Q R S T U V W X Y Z

The Hold Steady - Citrus tab

Help us improve GuitareTab! Take a short survey!
-----------------------------------------------------------------------------
		     CITRUS - The Hold Steady
-----------------------------------------------------------------------------
Tabbed by: Perry Petrich
Email: perry.petrich[AT]gmail.com

Tuning: Standard Tuning


Intro & Verse
e|----0------0------0------0------0------0---------------------------------||
B|------7------7------7------7------7------7------------------------------:||
G|-------7------7------7------7------7------7------------------------------||
D|----------------4------5------5------------------------------------------||
A|--5------5---------------------------4----------------------------------:||
E|-------------------------------------------------------------------------||

Verse 1
Hey citrus, hey liquor: I love it when you touch each other.
Hey whiskey, hey ginger: I come to you with rigid fingers.

Verse 2
Hey barroom, hey tavern: I find hope in all the souls you gather.
Hey citrus, hey liquor: I love it when we come together.


Chorus
e|---5--------------5--------------3--------------5-----0------0------0----||
B|---7--------------5--------------3--------------7-------7------7------7-:||
G|---7--------------6--------------4--------------7--------7------7------7-||
D|---7--------------7--------------5--------------7------------------------||
A|---5--------------7--------------5--------------5---5------5------5-----:||
E|------------------5--------------3---------------------------------------||

Chorus 1
I see Judas in the hard eyes of the boys working the corners.
I feel Jesus in the clumsiness of young and awkward lovers.

Chorus 2
I feel Jesus in the clumsiness of young and awkward lovers.
I feel Judas in the long odds of the rackets on the corners.
I feel Jesus in the tenderness of honest, nervous lovers.
I feel Judas in the pistols and the pagers that come with all the powders.


Outro:  Open Chords  
D               A                  G           D
Lost in fog and love and faithless fear
A        G                A               D          Dsus4 D Dadd9 D
I've had kisses that make Judas seem sincere

Repeat X4


Coda:  Open Chords
D               A                  G           D
Lost in fog and love and faithless fear
A        G                A               D   G   D
I've had kisses that make Judas seem sincere

=============================================================================
Related for Citrus tab