Guitaretab - guitar tabs
Song name
# A B C D E F G H I J K L M N O P Q R S T U V W X Y Z

The Hold Steady - Milkcrate Mosh tab

-------------------------------------------------------------------------------
			     Milkcrate Mosh - The Hold Steady
-------------------------------------------------------------------------------
Tabbed by: Shrodes

An oldie by The Hold Steady (think it was one of, if not, their first songs). Great track.

Tuning: Half step down
D#
A#
F#
C#
G#
D#

======
Intro
======

e|-----------------------------------|
B|-----------------------------------|
G|-----------------------------------|
D|-11--------------------------------|
A|-11-11-x15------2-x8--------4-x8---|
E|-9--9-----------0-----------2------|
PM .  .           .           .

The first note is a little less muted. Continue this for two bars.

======
Verses
======
[ Tab from: http://www.guitaretab.com/t/the-hold-steady/176573.html ]
e|----------------------------|
B|----------------------------|
G|----------------------------|
D|-11--------2---------4------|
A|-11--------2---------4------|
E|-9---------0---------2------|

Repeat these chords for rhythm.

e|------------------------------------------------------------|
B|------------------------------------------------------------|
G|---------------------------9------11------9-----------------|
D|--------------9----11-9------9-------9------9-----11-9------|
A|---------9-11---11------11-----11------11-----11-------11---|
E|--9---12----------------------------------------------------|

Is the riff over the top, with a little bend occasionally:

e|--------------|
B|-----11b--9---|
G|--------------|
D|--------------|
A|--------------|
E|--------------|

===============================================================================

That's admittedly nowhere near complete, but it should be enough to get you started, at 
with rhythm. I'm fairly confident that riff is 100% right too, maybe a note off.
Related for Milkcrate Mosh tab