Song name
# A B C D E F G H I J K L M N O P Q R S T U V W X Y Z

The Hold Steady - Hostile Mass tab

Help us improve GuitareTab! Take a short survey!
-------------------------------------------------------------------------------
			     Hostile Mass - The Hold Steady
-------------------------------------------------------------------------------
Tabbed by:Gushing_Blood / Hostile Matt

http://theholdsteady.proboards.com/index.cgi

Tuning:EADGBe

Intro:
e|------------|
B|------------|
G|-7----------|
D|-7----5-----|
A|-5----5-----|
E|------3-----|

Verse:(Palm muted)
e|-----------------------------------------------------------------|
B|-----------------------------------------------------------------|
G|-5-5-5-5-5-5-5-5-4-4-4-4-4-4-4-4-3-3-3-3-3-3-3-3-3-3-3-3-3-5-5-5-|
D|-5-5-5-5-5-5-5-5-4-4-4-4-4-4-4-4-3-3-3-3-3-3-3-3-3-3-3-3-3-5-5-5-|
A|-3-3-3-3-3-3-3-3-2-2-2-2-2-2-2-2-1-1-1-1-1-1-1-1-1-1-1-1-1-3-3-3-|
E|-----------------------------------------------------------------|

e|-----------------------------------------------------------------|
B|-----------------------------------------------------------------|
G|-----------------------------------------------------------------|
D|-7-7-7-7-7-7-7-7-6-6-6-6-6-6-6-6-5-5-5-5-5-5-5-5-5-5-5-5-5-3-3-3-|
A|-7-7-7-7-7-7-7-7-6-6-6-6-6-6-6-6-5-5-5-5-5-5-5-5-5-5-5-5-5-3-3-3-|
E|-5-5-5-5-5-5-5-5-4-4-4-4-4-4-4-4-3-3-3-3-3-3-3-3-3-3-3-3-3-1-1-1-|

Chorus:
e|---------------------------------|
B|---------------------------------|
G|-----------------5-5-5-5-5-5-5-5-|
D|-3-3-3-3-3-3-3-3-5-5-5-5-5-5-5-5-|
A|-3-3-3-3-3-3-3-3-3-3-3-3-3-3-3-3-|
E|-1-1-1-1-1-1-1-1-----------------| x2

e|-----------------------------------------------------------------|
B|-----------------------------------------------------------------|
G|-----------------5-5-5-5-5-5-5-5-7-7-7-7-7-7-7-7-----------------|
D|-3-3-3-3-3-3-3-3-5-5-5-5-5-5-5-5-7-7-7-7-7-7-7-7-5-5-5-5-5-5-5-5-|
A|-3-3-3-3-3-3-3-3-3-3-3-3-3-3-3-3-5-5-5-5-5-5-5-5-5-5-5-5-5-5-5-5-|
E|-1-1-1-1-1-1-1-1---------------------------------3-3-3-3-3-3-3-3-|

Sax Solo: Based on G Major scale using notes from the G, B, and E strings.
e|----------2-3-|
B|-------2-5----|
G|-2-3-5--------|
D|--------------|
A|--------------|
E|--------------|
That is the main structure of the scale you need to use.

Guitar Solo: 1:41
e|----------------------------------------|
B|----------------------------------------|
G|-7^^^^^(9)-(9)-(9)-7--5-7-5-----5----5--|
D|----------------------------5h7--5h7----|
A|----------------------------------------|
E|----------------------------------------|
Strike as you bend, and keep the note bent on the 9, and then release it for the first 7.
I'm not good at tabbing solo's, but the solo carries on in the A major blues scale, and 
pretty simple to work out by ear

| /  slide up
| \  slide down
| h  hammer-on
| p  pull-off
| ~  vibrato
| +  harmonic
| x  Mute note
===============================================================================
Related for Hostile Mass tab