Song name
# A B C D E F G H I J K L M N O P Q R S T U V W X Y Z

The Hold Steady - Massive Nights tab

##############################################

Artist: The Hold Steady
Song: Massive Nights
Album: Boys And Girls In America
Track: 8

Tabbed By: Rob Dickie (rogggo) - rogggo [at] gmail [dot] com

Tuning: Standard (E A D G B E)

##############################################

Intro (Bass only then intro riff)

e |--X-X-------X-X------------------------------------------------------------------------------|
B |--X-X-------X-X-----------7-----7------------------------------------------------------------|
G |--X-X-------X-X-------6b8---6b8---8b6-4-6-4-------4-----4-----4-----4-----4-----4------------|
D |--X-X-------X-X-------------------------------4h6---4h6---4h6---4h6---4h6---4h6--------------|
A |--X-X-------X-X------------------------------------------------------------------------------|
E |--X-X-------X-X------------------------------------------------------------------------------|

[ VERSE 1 ] - no guitar for first couple of lines

The Guys are feeling good about their liquor run. 
The girls are kinda flirting with the setting sun.

[ MAIN RIFF ]

    We all kinda fumbled through the jitterbug.
    We were all powered up on some new upper drug.
e |---------------------------------------------------------------------------------------------|
B |---------------------------------------------------------------------------------------------|
G |---------------------------------------------------------------------------------------------|
D |---------------------------------------------------------------------------------------------|
A |--9-9-9-9-9-9-9--7-7-7-7-7-7-7---4-4-4-4-4-4-4--2-2-2-2-2-2-2--------------------------------|
E |--7-7-7-7-7-7-0--0-0-0-0-0-0-0---2-2-2-2-2-2-0--0-0-0-0-0-0-0--------------------------------|

### Repeat Palm Muted for remainder of first verse.

everyone was funny and everyone was pretty. 
everyone was coming towards the center of the city. 
the dancefloor was crowded. the bathrooms were worse. 
we kissed in your car and we drank from your purse. 

[ PRE CHORUS ]

        I had my mouth on her nose when the chaperone said we were dancing too close...
e |--4-------------------------4------------------------------------0------------------------------|
B |--4-------------------------5------------------------------------0------------------------------|
G |--4-------------------------6------------------------------------1------------------------------|
D |--6-------------------------6------------------------------------2------------------------------|
A |--6-------------------------4------------------------------------2------------------------------|
E |--4--------------------------------------------------------------0------------------------------|
    G#m                       C#m                                  Emaj

[ CHORUS ]

### Repeat main riff

we had some massive nights. 
every song was right. 
all that wine was tight. 
your friends were pretty cool. 
and my friends were acting cool.

[ VERSE 2 ] - no guitar, bass only
 
there weren't any fights. 
there's usually one or two. 
some guys they get a little bit uptight. 
some girls they got something to prove.
we had some massive highs. 
we had some crushing lows. 
we had some lusty little crushes.
we had those all ages hardcore matinee shows.

[ PRE CHORUS ]

### Repeat as above

i was down on my knees when the chaperone said that it was time for me to leave.

[ CHORUS ]

### Repeat main riff

we had some massive nights. 
every song was right. 
all that wine was tight. 
your friends were pretty cool. 
and my friends were acting cool.

we had some massive nights. 
we had some massive nights. 
we had some massive nights. 
we had some massive nights. 

[ KEY CHANGE ]

    We had some massive nights woah...
e |---------------------------------------------------------------------------------------------|
B |---------------------------------------------------------------------------------------------|
G |--6-6-6-6-6-6--------------------------------------------------------------------------------|
D |--6-6-6-6-6-6-4--4-4-4-4-4-4-4-6-6-6-6-6-6-4--4-4-4-4-4-4-4----------------------------------|
A |--4-4-4-4-4-4-4--4-4-4-4-4-4-4-6-6-6-6-6-6-4--4-4-4-4-4-4-4----------------------------------|
E |--------------2--2-2-2-2-2-2-2-4-4-4-4-4-4-2--2-2-2-2-2-2-2----------------------------------|

### Repeat for 1x Chorus

[ OUTRO ]

       She had the gun in her mouth and she was shooting up in her dreams.
       When the chaperone said that we we'd been crowned the king and the queen.
e |---------------------------------------------------------------------------------------------|
B |---------------------------------------------------------------------------------------------|
G |---------------------------------------------------------------------------------------------|
D |---------------------------------------------------------------------------------------------|
A |--11----11----9h11----6----6--4--2-----------------------------------------------------------|
E |--9-----0-----0-------4----0--0--0-----------------------------------------------------------|
    				let ring

________________________________________
This tab was not created by me, but by Rob Dickie (rogggo) - rogggo [at] gmail [dot] com.
I have posted it on his behalf.


Stay Positive.
Tap to rate this tab
# A B C D E F G H I J K L M N O P Q R S T U V W X Y Z