Song name
# A B C D E F G H I J K L M N O P Q R S T U V W X Y Z

The Hold Steady - Ask Her For Adderall tab

-------------------------------------------------------------------------------
		     Ask Her For Adderall - The Hold Steady
-------------------------------------------------------------------------------
Tabbed by: flambe chicken

Tuning: standard

Intro/Verse (I'm sure you can all pick up the rhythm)

.......................................x3

e|-------------------|------------------|------------------|-------------------|
B|--5---5-5-5---5-5--|------------------|------------------|-------------------|
G|--4---4-4-4---4-4--|-2---2-2-2---2-2--|--4---4-4-4---4-4-|--2---2-2-2---2-2--|
D|--2---2-2-2---2-2--|-2---2-2-2---2-2--|--4---4-4-4---4-4-|--2---2-2-2---2-2--|
A|-------------------|-0---0-0-0---0-0--|--2---2-2-2---2-2-|--0---0-0-0---0-0--|
E|-------------------|------------------|------------------|-------------------|

Chorus (chords)

E5			B5
c5			G5
B5

Then when it gets to the guitar-less verse, just hit E5

After the first chorus, the choruses have this lead playing over the top (just play the next
note when the chord changes):


e|---------------------------------------------------------------------------|
B|-15--------12---------13--------8----------12------------------------------|
G|-17b19-----14b16------15b17-----10b12------14b16---------------------------|
D|---------------------------------------------------------------------------|
A|---------------------------------------------------------------------------|
E|---------------------------------------------------------------------------|

End on (two guitars)
e|---------------------------------------------------------------------------|
B|---15-------\--------------------------------------------------------------|
G|---17b19----\--------------------------------------------------------------|
D|---9--------\--------------------------------------------------------------|
A|---7--------\--------------------------------------------------------------|
E|------------\--------------------------------------------------------------|

Chords:

........E5......B5......C5......G5
e|---------------------------------------------------------------------------|
B|------5--------------------------------------------------------------------|
G|------4-------4-------5----------------------------------------------------|
D|------2-------4-------5-------5--------------------------------------------|
A|--------------2-------3-------5--------------------------------------------|
E|------------------------------3--------------------------------------------|

Hope it all made sense!

| /  slide up
| \  slide down
| h  hammer-on
| p  pull-off
| ~  vibrato
| +  harmonic
| x  Mute note
===============================================================================
Tap to rate this tab
# A B C D E F G H I J K L M N O P Q R S T U V W X Y Z