Song name
# A B C D E F G H I J K L M N O P Q R S T U V W X Y Z

The Hold Steady - Rock Problems tab

courtesy of mcstevepants, brian_nj, and stringer of Unified Scene

E---------------------------------------------------------|
b---------------------------------------------------------|
g-10-10-10-10-10--9--7------------------------------------|
d-10-10-10-10-10--9--7----10-10-10-10-10--9--7------------|
a--8--8--8--8--8---7--5----10-10-10-10-10--9--7-----------|
e-----------------------------8--8--8--8--8--7--5---------|

E-----------------------------------|
b-----------------------------------|
g------------------------5----------|
d-4-5-5-5-4-5-5-5-4-5--5--3---------|
a-4-5-5-5-4-5-5-5-4-5--3--3---------|
e-2-3-3-3-2-3-3-3-2-3-----1---------| (2x)


Just pretend those all line up
Verse(girls wanna go to the parties): G, Bm, F, Am, Em, C
Chorus sorta (wanna stay in, walls are so grey): Bm, G, D, Am, Em, C
Tap to rate this tab
# A B C D E F G H I J K L M N O P Q R S T U V W X Y Z