Song name
# A B C D E F G H I J K L M N O P Q R S T U V W X Y Z

The Hold Steady - Barely Breathing tab

courtesy of stringer from unified scene
sorry the formatting sucks but you can figure it out

e--------------|
b---3-3--3-3---|
G---3-3--3-3---|
D--------------|
A--------------|
E-3------2-----| yeah pretend that matches up.. play that a couple times and then its

e-----------------------------------|
b----3-3---3-3---3-3---3---3--------|
G----3-3---3-3---3-3---3---3--------|
D-----------------------------------|
A-----------------1-----------------|
E--3-----2-------------0---1--------| And then repeat as necessary

chorus is:
e-------------2-2--2---3-3--3---3-3---|
b--3-3--3---3-3--3---3-3--3---3-3-----|
G--3-3--3---2-2--2---0-0--0---0-0-----|
D--3-3--3---0-0--0---0-0--0---0-0-----|
A--1-1--1--------------2-2--2---------|
E------------------------3-3--3---2-1-| and repeat..

I think the 'kids are all distracted' bit is somewhere along the lines of..
e------------------------3------3------3----------------2------3------2------------|
b-3--3--3--3-------------3------3------3----------------3------3------3------------|
G-3--3--3--3-----------------------------------------------------------------------|
D------------------1--1------1------1-------1----0--0-----0------0-------0---------|
A----------------------------------------------------------------------------------|
E-3--2--1--0-----------------------------------------------------------------------|
Tap to rate this tab
# A B C D E F G H I J K L M N O P Q R S T U V W X Y Z