The Hold Steady - Stevie Nix tab

"Stevie Nix" by The Hold Steady

Tabbed by kbeeb
 
1--|---------------------------|
2--|--2--2--2-2--3-2--2-0-2----|
3--|--2--2--2-2--2-2--2-2-2----|
4--|--2--2--2-2--2-2--2-2-2----|
5--|---------------------------|
6--|---------------------------|  Call this Riff 1


	   Palm mute these bad boys
	    |-------------------|
1--|-------------------------------|
2--|--2--2--2-2-2-2-2-2-2-2-2-2----|
3--|--2--2--2-2-2-2-2-2-2-2-2-2----|
4--|--2--2--2-2-2-2-2-2-2-2-2-2----|
5--|-------------------------------|
6--|-------------------------------|  And this will be Fill 1


1--|--2-------------------------|
2--|--3-------------------------|
3--|--2-------------------------|
4--|----------------------------|
5--|----------------------------|
6--|----------0--1--2--3--4--5--|  This is Fill 2

1--|--------|
2--|--------|
3--|--1-----|
4--|--2-----|
5--|--2-----|
6--|--------|  Not a lot for the guitar in Break 1

1--|--------------------|
2--|--------------------|
3--|--------------0--1--|
4--|--1--2--3--4--------|
5--|--------------------|
6--|--------------------|  Here's Fill 3

Break 2 is the piano solo that leads into a really simple section, just E chords and A chords,
and then comes the guitar solo.


Guitar Solo as near as I can tell
1--|--------------12----------------------12------12--12h14---14--14--12--11--12--11--------|
2--|--12--14--12------14--12--12--14--12------14--------------------------------------14----|
3--|----------------------------------------------------------------------------------------|
4--|----------------------------------------------------------------------------------------|
5--|----------------------------------------------------------------------------------------|
6--|----------------------------------------------------------------------------------------|

1--|----------------------------------------------------------------------------------------|
2--|--9h10h12---9h10h12--9h10h12--12--12^13^12---10h12p10-----------------------------------|
3--|----------------------------------------------------------------------------------------|
4--|----------------------------------------------------------------------------------------|
5--|----------------------------------------------------------------------------------------|
6--|----------------------------------------------------------------------------------------|

1--|--16--14--12--11--12--11----------------------------------------------------------------|
2--|--------------------------14--12--10--9--10--9--10--------------------------------------|
3--|----------------------------------------------------------------------------------------|
4--|----------------------------------------------------------------------------------------|
5--|----------------------------------------------------------------------------------------|
6--|----------------------------------------------------------------------------------------|

1--|----12--------12-------12-------12-------12-------12-------12-------12-------12-------12|
2--|9h12------9h12-----9h12-----9h12-----9h12-----9h12-----9h12-----9h12-----9h12-----9h12--|
3--|----------------------------------------------------------------------------------------|
4--|----------------------------------------------------------------------------------------|
5--|----------------------------------------------------------------------------------------|
6--|----------------------------------------------------------------------------------------|

1--|--12--11--9-----------------------------------------------------------------------------|
2--|-------------12--10--9------------------------------------------------------------------|
3--|------------------------11--9--11--11^13\9----------------------------------------------|
4--|----------------------------------------------------------------------------------------|
5--|----------------------------------------------------------------------------------------|
6--|----------------------------------------------------------------------------------------|



So the order of the parts would be:
Riff 1 x3
Fill 1 x1
Riff 1 x8
Fill 2 X1
Riff 1 x3
Fill 1 x1
Riff 1 x8
Fill 2 x1
Slam that E chord
Fill 3 x1
Riff 1 x3
Fill 1 x1
Riff 1 x8
Slam that E chord
Piano Solo
E and A chords
Guitar Solo

And that's the song as near as I can tell.  This is my first tab, so use this expecting some 
missed hammers, pulls, bends, etc.  It's a great song, and I thought it deserved a tab, even
an inaccurate one.

--kbeeb  (kdardio2415@yahoo.com)
Tap to rate this tab
 
# A B C D E F G H I J K L M N O P Q R S T U V W X Y Z