Song name
# A B C D E F G H I J K L M N O P Q R S T U V W X Y Z

The Hold Steady - Stuck Between Stations tab

Song: Stuck Between Stations
Artist: The Hold Steady
Album: Boys and Girls in America
Tuning: Standard
Tabbed by: George Clarke

                    ***!!!CORRECTED COPY OF VERSION 2!!!***

* = palm mute
/ = downstroke
^ = upstroke
h= hammer-on
#= mute immedietly after playing

Play the intro along with the song to get the timing

Intro
e)-------------------------------------------------------------------|
B)-------------------------------------------------------------------|
G)-12-12-12-11-11-11-11-12-12-11-11-11-11-11-12-12-11-11-11-11-11----|
D)-0--0--0--0--0--0--0--0--0--0--0--0--0--0--0--0--0--0--0--0--0-----|
A)-------------------------------------------------------------------|
E)-------------------------------------------------------------------|
  ***************************************************************
)-----------------------|
)-----------------------|
)--9-9-9-9-7-7-7-7-7----|
)--0-0-0-0-0-0-0-0-0----|  x2
)-----------------------|
)-----------------------|
 **********************
0:00 – 0:15

Part I
)-3-3-2-2-2-2----------3-3-0-0-0-0--|
)-0-0-3-3-3-3----------0-0-2-2-2-2--|
)-0-0-2-2-2-2----------0-0-2-2-2-2--| all this twice
)-0-0-0-0-0-0-x3 then--0-2-2-2-2-2--|
)-2-2-x-x-x-x----------2-2-0-0-0-0--|
)-3-3-x-x-x-x----------3-3-x-x-x-x--|
  / / ^ ^ / ^          / / / ^ / ^

Part I:
“Sucking off each other …”
0:41 – 0:54

 Part II:
“She was a really cool kisser…”
                 G D A
) ---------------3-2-0-----|
) ---------------0-3-2-----|
) ---------------0-2-2-----|
) --------0-2-0--0-0-2-----| x 4
) --0-2-4--------2-x-0-----|
) ---------------3-x-x-----|
                 / / /
0:55 – 1:21

Part I:
“On the radio…”
1:21 – 1:34

Intro:
“The devil and John Barryman took a walk together…”
 1:35 – 1:47

Part I:
“There was that night we thought that John Barryman could fly…”
1:48 – 2:01

Part II x 4 then repeat the G D A sequence x 3):
“And he was drunk and exhausted…"
2:01 – 2:37

Part III:
“And now we crumble into dust …”
    D A D G D     A
) ---2-0-2-3-2-2-2-0#
) ---3-2-3-0-3-3-3-2#
) ---2-2-2-0-2-2-2-2#
) ---0-2-0-0-0-0-0-2#
) ---x-0-x-2-x-x-x-0#
) ---x-x-x-3-x-x-x-x#
     / / / / / ^ / /
2:55 - 2:58

Part III:
“And now we’re covered up in rust…”
  3:02 – 3:05

Part III:
“And now we crumble into dust…”
  3:08 – 3:11

Part III:
“And now we’re covered up in rust…”
3:15 – 3:18


Part II  x 4 (then repeat the G D A sequence 3 times)
3:18 – 3:52

                       That’s it, Sportsfans. Good luck.

P.S. if you know how to play "Southtown Girls" or "How A Resurrection Really Feels" by 
Hold Steady, could you tab it, please?
Tap to rate this tab
 
# A B C D E F G H I J K L M N O P Q R S T U V W X Y Z