Song name
# A B C D E F G H I J K L M N O P Q R S T U V W X Y Z

The Hold Steady - Cattle And The Creepy Things tab

Chords for Verses
e -------------------------|
B -5--5--3--2--1--1--1--1--|
G -5--4--2--2--2--0--1--2--|
D -7--5--3--2--2--2--2--2--|
A -0--0--0--0--0--0--0--0--|
E -------------------------|
(These are the chords, follow the song for the rhythm.)

Chorus:
    C  E  G Am	     C  E  G     Am
e --0--0--3--0-------0--0--3-----0--|
B --1--0--0--1-------1--0--0-----1--|
G --0--1--0--2-------0--1--0-----2--|
D --2--2--0--2-------2--2--0-----2--|
A --3--2--2--0-------3--2--2-----0--|
E -----0--3-------------0--3--4-----|

The Solo is in C major (Am pentatonic)
Tap to rate this tab
 
# A B C D E F G H I J K L M N O P Q R S T U V W X Y Z