Song name
# A B C D E F G H I J K L M N O P Q R S T U V W X Y Z

The Hold Steady - Hornets Hornets tab

Artist: The Hold Steady
Song:Hornets! Hornets!
Tabbed by: karl
Email: karlh07@gmail.com

Key:
:| = Repeat
/ = Slide
~ = Let note ring


Intro      
                                     x4  
e------------------------------------:|
B------------------------------------:|
G------------------------------------:|
D----------------2---------------2---:|
A--0-3-4-7-4-3-0---0-3-4-7-4-3-0-----:|
E------------------------------------:|


Verse 4x

Lead                                 x3 
e------------------------------------:|
B------------------------------------:|
G------------------------------------:|
D----------------2---------------2---:|
A--0-3-4-7-4-3-0---0-3-4-7-4-3-0-----:|
E------------------------------------:|

Rhythm                               x3 
e------------------------------------:| 
B------------------------------------:|
G----------------2---------------2---:|
D----------------2---------------2---:|
A----------------0---------------0---:|
E------------------------------------:|

On 4th repeat:
e------------1---1----
B------------1---1----
G---------------------
D----5---5------------
A----3---3---2---2----
E------------3---3----

On 4th repeat of verse:
                                     x3
e------------------------------------:|
B------------------------------------:|
G------------------------------------:|
D----------------2---------------2---:|
A--0-3-4-7-4-3-0---0-3-4-7-4-3-0-----:|
E------------------------------------:|

...and he had nothing but the number...
e--------------------------------------
B--------------------------------------
G--------------------------------------
D----5---5---5-------2---2-----5---5---
A----3---3---5---5---2---2-----3---3---
E------------3---3---0---0-------------


Chorus
                              he always knows what you came...
e-----------------------------------
B-----------------------------------
G-----------------------------------
D---5----------------5--5-----5-----
A---3-------5--5-----3--3-----3-----
E-----------3--3--------------------


Bridge/Solo

     Repeat throughout bridge
e-------------------------:|
B---------10~-------10~---:|
G----7-6--------7-6-------:|
D-------------------------:|
A-------------------------:|
E-------------------------:|

Solo
e--------------------------------------------:|
B--------------------------------------------:|
G--7/9--7------------ 7/9--7-----------------:|
D----------11--9--7-----------11--9--7-------:|
A--------------------------------------------:|
E--------------------------------------------:|

Tap to rate this tab
# A B C D E F G H I J K L M N O P Q R S T U V W X Y Z