Song name
# A B C D E F G H I J K L M N O P Q R S T U V W X Y Z

The Hold Steady - Multitude Of Casualities tab

----------------------------------------------------------------------------
	   Multitude of Casualities - The Hold Steady
----------------------------------------------------------------------------
Tabbed by: Matt Mortensen
Email: fueled_by_feces@yahoo.com
Tuning: Standard Tuning

I think it might just be this easy. Enjoy!

Intro & Verse

    e       C#      B
e|---------------------------------------------------------------------||
B|--------------------------------------------------------------------:||
G|--9-------9----------------------------------------------------------||
D|--9--x16--9--x8---9---X8---------------------------------------------||
A|--7-------x-------9-------------------------------------------------:||
E|----------9-------7--------------------------------------------------||


Chorus (sort-of)

    A       F#      B
e|---------------------------------------------------------------------||
B|--------------------------------------------------------------------:||
G|---------------------------------------------------------------------||
D|--7--x16--4--x8---9---X8---------------------------------------------||
A|--7-------4-------9-------------------------------------------------:||
E|--5-------2-------7--------------------------------------------------||

Repeat!

The interlude for the most part is just an organ through a rotating speaker and a few guitar noises. 

Great Band! Tad Kubler is the new rock guitar hero! 

Tap to rate this tab
 
# A B C D E F G H I J K L M N O P Q R S T U V W X Y Z