Song name
# A B C D E F G H I J K L M N O P Q R S T U V W X Y Z

The Hold Steady - Hot Fries tab

Artist: The Hold Steady
Song: Hot Fries
Album: Demo
Tab by: Matt Jones
JonesieSucks@gmail.com

Hot Fries

intro:

e-----------------|
B-----10-10-10-10-|
G-----9--9---9--9-|
D-----7--7---7--7-|
A-----0--0---0--0-|
E-----------------|

Verse:

e-----------------------------------------------------------------|
B-----10-10-10-10-10-10-10-10-10-10-10-10-10-10-10-10-------------|
G-----9--9--9---9--9---9--9--9---9--9--9--9---9--9---9--9---------|
D-----7--7--7---7--7---7--7--7---7--7--7--7---7--7---7--7---------|
A-----0--0--0---0--5---5--5--5---8--8--8--8-----------------------|
E-------------------------------------------------8--8---7--7-----|

Chorus:

e------------------------------------------|
B------------------------------------------|
G-----2-2-2-2-2-5-4-2-2-2-2-2-2-5-4-2------|
D-----2-2-2-2-2-2-2-2-3-3-3-3-3-3-3-3------|   then C F G repeat a few times
A-----0-0-0-0-0-0-0-0-0-0-0-0-0-0-0-0------|
E------------------------------------------|


Solo:

e-----------------------------5-5---------------------------17/20-17/20-17/20-17^-15/17-17-15/17-17---------------------3-------------3------------|
B-----8^10-10^8-8-6-5-5/6-6-6-5----------------------------17-----17----17-----------17---------17-------------------3/5-5-3-1---3/5-5-3-1-3-------|
G-------------------------------------7^-7^-7^-7^-7^-7-------------------------------------------------------------------------2-2-2--------2-2-2--|
D------------------------------------------------------------------------------------------------------------------5--5-7-7^------------0----------|
A--------------------------------------------------------------------------------------------------------------5-7--7------------------------------|
E-------------------------------------------------------------------------------------------------------------5------------------------------------|

e----------------------------------------------------------------------------|
B----------------------------------------------10--10-8-10-8^-8^-8^-8--------|
G-----5-7-8-7-5-7-8-7-5-7-8-7-5-7------7/9--9---9-9--------------------------|
D---------------------------------------5-7----------------------------------|
A--------------------------------------5-------------------------------------|
E----------------------------------------------------------------------------|

outro/bridge

G - B/C-C
G - F - C - F

Intro - x14
verse - x6
Chorus - x2
intro - x8
verse 2 (nothing played)
Solo
Chorus - x4
Bridge - x4
Tap to rate this tab
# A B C D E F G H I J K L M N O P Q R S T U V W X Y Z