Song name
# A B C D E F G H I J K L M N O P Q R S T U V W X Y Z

The Hold Steady - You Can Make Him Like You tab

Part A
e|--3--3--3-3-3-3--3-3-3--3-3--x--x--x-x-x-x--x-x-x--x-x--| 
b|--3--3--3-3-3-3--3-3-3--3-3--0--0--0-0-0-0--0-0-0--0-0--| 
g|--4--4--4-4-4-4--4-4-4--4-4--0--0--0-0-0-0--0-0-0--0-0--|   4x
D|--5--5--5-5-5-5--5-5-5--5-5--0--0--0-0-0-0--0-0-0--0-0--| 
A|--3--3--3-3-3-3--3-3-3--3-3--x--x--x-x-x-x--x-x-x--x-x--|
E|--x--x--x-x-x-x--x-x-x--x-x--3--3--3-3-3-3--3-3-3--3-3--|


Part B -- palm muted
"You don't have to deal with the dealers..."
e|-------------------------------------------------------------------| 
b|-------------------------------------------------------------------| 
g|-------------------------------------------------------------------| 
D|--5-5-5-5-5-5-5-5-5-5-5-5-5-5-5-5-5-5-5-5-5-5-5-5-5-5-5-5-5-5-5-5-5|
A|--3-3-3-3-3-3-3-7-7-7-7-7-7-7-7-7-5-5-5-5-5-5-5-5-5-5-5-5-5-5-5-5-5|
E|--0-0-0-0-0-0-0-8-8-8-8-8-8-8-8-8-3-3-3-3-3-3-3-3-3-3-3-3-3-3-3-3-3|

                                                                  > >
e|----------------------------------------------------------------3-3| 
b|----------------------------------------------------------------3-3| 
g|----------------------------------------------------------------4-4| 
D|--5-5-5-5-5-5-5-5-5-5-5-5-5-5-5-5-5-5-5-5-5-5-5-5-5-5-5-5-5-5-5-5-5|
A|--3-3-3-3-3-3-3-7-7-7-7-7-7-7-7-7-5-5-5-5-5-5-5-5-5-5-5-5-5-5-5-5-5|
E|--0-0-0-0-0-0-0-8-8-8-8-8-8-8-8-8-3-3-3-3-3-3-3-3-3-3-3-3-3-3-3-3-3|



Back to Part A
"You don't have to know how to get home..."
e|--3--3--3-3-3-3--3-3-3--3-3--x--x--x-x-x-x--x-x-x--x-x--| 
b|--3--3--3-3-3-3--3-3-3--3-3--0--0--0-0-0-0--0-0-0--0-0--| 
g|--4--4--4-4-4-4--4-4-4--4-4--0--0--0-0-0-0--0-0-0--0-0--| 
D|--5--5--5-5-5-5--5-5-5--5-5--0--0--0-0-0-0--0-0-0--0-0--|    4x
A|--3--3--3-3-3-3--3-3-3--3-3--x--x--x-x-x-x--x-x-x--x-x--|
E|--x--x--x-x-x-x--x-x-x--x-x--3--3--3-3-3-3--3-3-3--3-3--|

 
Part C (Chorus)
"And if you get tired of your boyfriend's things..."
      Em                 C               G
e|--0-0-0-0-0-0-0-0-0-0-0-0-0-0-0-3-3-3-3-3-3-3-3-3-3-3-3-3-3-3-3-3-3|
b|--0-0-0-0-0-0-0-1-1-1-1-1-1-1-1-1-3-3-3-3-3-3-3-3-3-3-3-3-3-3-3-3-3|
g|--0-0-0-0-0-0-0-0-0-0-0-0-0-0-0-0-0-0-0-0-0-0-0-0-0-0-0-0-0-0-0-0-0| 
D|--2-2-2-2-2-2-2-2-2-2-2-2-2-2-2-2-0-0-0-0-0-0-0-0-0-0-0-0-0-0-0-0-0|   2x
A|--2-2-2-2-2-2-2-3-3-3-3-3-3-3-3-3-x-x-x-x-x-x-x-x-x-x-x-x-x-x-x-x-x|
E|--0-0-0-0-0-0-0-x-x-x-x-x-x-x-x-x-3-3-3-3-3-3-3-3-3-3-3-3-3-3-3-3-3|


Another Part B -- palm muted.
"You don't have to deal with the dealers..."
e|-------------------------------------------------------------------| 
b|-------------------------------------------------------------------| 
g|-------------------------------------------------------------------| 
D|--5-5-5-5-5-5-5-5-5-5-5-5-5-5-5-5-5-5-5-5-5-5-5-5-5-5-5-5-5-5-5-5-5|   4x
A|--3-3-3-3-3-3-3-7-7-7-7-7-7-7-7-7-5-5-5-5-5-5-5-5-5-5-5-5-5-5-5-5-5|
E|--0-0-0-0-0-0-0-8-8-8-8-8-8-8-8-8-3-3-3-3-3-3-3-3-3-3-3-3-3-3-3-3-3|

Part C (Chorus)
"And if you get tired of your boyfriend's things..."
      Em                 C               G
e|--0-0-0-0-0-0-0-0-0-0-0-0-0-0-0-3-3-3-3-3-3-3-3-3-3-3-3-3-3-3-3-3-3|
b|--0-0-0-0-0-0-0-1-1-1-1-1-1-1-1-1-3-3-3-3-3-3-3-3-3-3-3-3-3-3-3-3-3|
g|--0-0-0-0-0-0-0-0-0-0-0-0-0-0-0-0-0-0-0-0-0-0-0-0-0-0-0-0-0-0-0-0-0| 
D|--2-2-2-2-2-2-2-2-2-2-2-2-2-2-2-2-0-0-0-0-0-0-0-0-0-0-0-0-0-0-0-0-0|   4x
A|--2-2-2-2-2-2-2-3-3-3-3-3-3-3-3-3-x-x-x-x-x-x-x-x-x-x-x-x-x-x-x-x-x|
E|--0-0-0-0-0-0-0-x-x-x-x-x-x-x-x-x-3-3-3-3-3-3-3-3-3-3-3-3-3-3-3-3-3|

Part D -- breakdown in half time
"They say you don't have a problem..."
e|--0---------0------------3---------------------------|
b|--1---------1------------3---------------------------|
g|--0---------0------------0---------------------------|
D|--2---------2------------0---------------------------|    3x
A|--3---------3------------x---------------------------|
E|--x---------x------------3---------------------------|

e|--0---------0------------3-------------3-------------|
b|--1---------1------------3-------------3-------------|
g|--0---------0------------0-------------0-------------| 
D|--2---------2------------0-------------0-------------| 
A|--3---------3------------x-------------x-------------|
E|--x---------x------------3-------------3-------------|


Part E -- back to the chorus's chords, still in half time
the strumming pattern is hard to decipher, so this is just illustrative:
       Em          C                 G
e|--0---0---0---0-0-----0---0---0---3---3---3---3-3--3---3---3---3|
b|--0---0---0---0-1-----1---1---1---3---3---3---3-3--3---3---3---3|
g|--0---0---0---0-0-----0---0---0---0---0---0---0-0--0---0---0---0|
D|--2---2---2---2-2-----2---2---2---0---0---0---0-0--0---0---0---0|   4x
A|--2---2---2---2-3-----3---3---3---x---x---x---x-x--x---x---x---x|
E|--0---0---0---0-x-----x---x---x---3---3---3---3-3--3---3---3---3|
Tap to rate this tab
# A B C D E F G H I J K L M N O P Q R S T U V W X Y Z