Song name
# A B C D E F G H I J K L M N O P Q R S T U V W X Y Z

The Holdup - Good Times tab

Standard Tuning

Crackin ass band.

Guitar 1

e-----------5------3------5-------------------------------------------------|
B----8------6------4------6-------------------------------------------------|
G----8------7------5------7-------------------------------------------------|
D----8------7------5------7-------------------------------------------------|
A----6------5------3------5-------------------------------------------------|
E---------------------------------------------------------------------------|

Guitar 2

e--6-8-6-8-8-/10-8-6-8b--6--8-/10-8-6-8b--6--8-/10-8-6-8b-6-----------------|
B-----------------------8-8--------------8-8--------------------------------|
G---------------------------------------------------------------------------|
D---------------------------------------------------------------------------|
A---------------------------------------------------------------------------|
E---------------------------------------------------------------------------|


e--6-8-6-8-8-/10-8-6-8b--6--8-6-5-3---6-6--8-/10-8-8b-6---------------------|
B-----------------------8-8----------8-8------------------------------------|
G---------------------------------------------------------------------------|
D---------------------------------------------------------------------------|
A---------------------------------------------------------------------------|
E---------------------------------------------------------------------------|


Guitar 2 continued...

Palm Muted


"Well back in the day when nobody could play me no nothing could phase me.."

e--10-10-10-10-10-10-10--8-8-8-8-8--6-6-6-6-6--8-8-8-8-8-8------------------|
B---------------------------------------------------------------------------|
G---------------------------------------------------------------------------|
D---------------------------------------------------------------------------|
A---------------------------------------------------------------------------|
E---------------------------------------------------------------------------|

www.myspace.com/theholdupmusic
That's the whole song. Enjoy.

b-bend
/-slide
Tap to rate this tab
# A B C D E F G H I J K L M N O P Q R S T U V W X Y Z