Song name
# A B C D E F G H I J K L M N O P Q R S T U V W X Y Z

The Holdup - Sometimes Theyre Bitches tab

The Holdup


Standard tuning.


e----3----3-3-3----3-/5----------2--2-2-2-3-p2--0-0-0-h2-p0--------|
B----3----3-3-3----3-/5--3-/5----3--3-3-3-3-----------------1--1-1-|
G----0----0-0-0----------2-/4----2--2-2-2-2-----------------0--0-0-|
D----0----0-0-0---------------------------------------------2--2-2-|
A----2----2-2-2---------------------------------------------3--3-3-|
E----3----3-3-3----------------------------------------------------|


e-----------------------3-----3-3-3--3-/5-----------------------|
B---//3-3----1----------3-----3-3-3--3-/5---3-------------------|
G---//4-4----2--------0-0-----0-0-0---------2-------------------|
D---//5-5----3----0-h2--0-----0-0-0-----------------------------|
A-----------------------2-----2-2-2-----------------------------|
E-----------------------3-----3-3-3-----------------------------|

Repeat that for the whole song. Enjoy.


/-slide
p-pull off
h-hammer on
Tap to rate this tab
 
# A B C D E F G H I J K L M N O P Q R S T U V W X Y Z