Song name
# A B C D E F G H I J K L M N O P Q R S T U V W X Y Z

The Holdup - Chronic Song tab

yeah so this is a basic way to play chronic song by the holdup, we won't get to
see them until may, so this is our way until we can check it.  any ideas contact
us at lov3slav3@yahoo.com
                        -Ty Powers & Evan Hughes
Intro and Verse
------------------------------------------------------|
-------5-------3--------1---------3-------------------|
--------5----------------2----------------------------|
--------------5-----------------5---------------------|
------------------------------------------------------|
--55555----333-----11111----333-----------------------|
  xxxxx    xxx     xxxxx    xxx

solo, well more like just a few fills
-------------------------------------------88888-7----|
------------------88888h10----------------------------|
--7p5-7p5-------------------7p5-7p5-------------------|
----------7p5-7p5-------------------7p5-7p5-----------|
------------------------------------------------------|
------------------------------------------------------|
Tap to rate this tab
# A B C D E F G H I J K L M N O P Q R S T U V W X Y Z