Song name
# A B C D E F G H I J K L M N O P Q R S T U V W X Y Z

The Holdup - Chronic Song tab

Pretty similar to the other tab thats up.


e----------0-----------------------------------------------------------|
B-----------1-------3-----------1--------3-----------------------------|
G------------------0-------------2---------4---------------------------|
D----------------------------------------------------------------------|
A----00000-------------------------------------------------------------|
E--------------333--------11111-----333--------------------------------|


Solo

e---------------------------------------------------------------------|
B--------------------------------------------------------13-----------|
G-----------------------------------------1212121212-14----(14)-------|
D-----14p12h14p12-----------------------------------------------------|
A------------------15p12h15p12h15p12----------------------------------|
E---------------------------------------------------------------------|

e---------------------------------------------------------------------|
B-----------------------------------------1313131313b-12--------------|
G---------------------------------------------------------------------|
D-----14p12h14p12-----------------------------------------------------|
A------------------15p12h15p12h15p12----------------------------------|
E---------------------------------------------------------------------|

p-pull off
h-hammer on
()-dont play everytime


italy650@comcast.net
Tap to rate this tab
# A B C D E F G H I J K L M N O P Q R S T U V W X Y Z