Song name
# A B C D E F G H I J K L M N O P Q R S T U V W X Y Z

The Holdup - Summertime Baby chords

Highlighted       Show chord diagrams
-----------------------------------------------------------------
Summertime Baby  The Holdup
-----------------------------------------------------------------
Tabbed by: Brian Zucker
Email: bnzucker@comcast.net	
Tuning: Standard
     G               C       D
e|---3---3---3---3---3---3---5---5-------------------------------|
B|---3---3---3---3---5---5---7---7-------------------------------|
G|---4---4---4---4---5---5---7---7-------------------------------|
D|---5---5---5---5---5---5---7---7-------------------------------|
A|---5---5---5---5---3---3---5---5-------------------------------|
E|---3---3---3---3---x---x---x---x-------------------------------|

Thats all... very simple
Tap to rate this tab
 
# A B C D E F G H I J K L M N O P Q R S T U V W X Y Z