Song name
# A B C D E F G H I J K L M N O P Q R S T U V W X Y Z

The Holdup - Alone With You tab

-----------------------------------------------------------------
Alone With You  The Holdup
-----------------------------------------------------------------
Tabbed by: Brian Zucker
Email:bnzucker@comcast.net
Tuning: standard
Chords for whole song
      G         C
e|----3----3----8----8-------------------------------------------|
B|----3----3----8----8-------------------------------------------|
G|----4----4----9----9-------------------------------------------|
D|----5----5----10---10------------------------------------------|
A|----5----5----10---10------------------------------------------|
E|----3----3----8----8-------------------------------------------|
chorus part
e|------7--5--3------------15-14-15------------------------------|
B|---------------------------------------------------------------|
G|---------------------------------------------------------------|
D|---------------------------------------------------------------|
A|---------------------------------------------------------------|
E|---------------------------------------------------------------|

Thats all you need to know for this one... put some phaser and reverb on with this one 
too. They like using those two effects.

| /  slide up
| \  slide down
| h  hammer-on
| p  pull-off
| ~  vibrato
| +  harmonic
| x  Mute note
Tap to rate this tab
 
# A B C D E F G H I J K L M N O P Q R S T U V W X Y Z