Song name
# A B C D E F G H I J K L M N O P Q R S T U V W X Y Z

The Holdup - One More Day chords

Highlighted       Show chord diagrams
-----------------------------------------------------------------
One More Day  The Holdup
-----------------------------------------------------------------
Tabbed by: Brian Zucker
Email: bnzucker@comcast.net
Tuning: Standard
      A      Bm       D
e|----5---5---7---7---5---5---5---5------------------------------|
B|----5---5---7---7---7---7---7---7------------------------------|
G|----6---6---7---7---7---7---7---7------------------------------|
D|----7---7---9---9---7---7---7---7------------------------------|
A|----7---7---9---9---5---5---5---5------------------------------|
E|----5---5---7---7---x---x---x---x------------------------------|

For the verse just strum these chords quickly with phaser and delay on... listen 
to the song for patterns.
Tap to rate this tab
 
# A B C D E F G H I J K L M N O P Q R S T U V W X Y Z