The Holdup - The Girls chords

Highlighted       Show chord diagrams
-----------------------------------------------------------------
The Girls  The Holdup
-----------------------------------------------------------------
Tabbed by: Brian Zucker
Email: bnzucker@comcast.net
Tuning: Standard
    E     C#m     A      B
e|--7------4------5------7---------------------------------------|
B|--9------5------5------7---------------------------------------|
G|--9------6------6------8---------------------------------------|
D|--9------6------7------9---------------------------------------|
A|--7------4------7------9---------------------------------------|
E|--x------x------5------7---------------------------------------|

chorus: strum each chord 8 times
verse: more random strumming
Tap to rate this tab
 
# A B C D E F G H I J K L M N O P Q R S T U V W X Y Z