The Holdup - Miss You tab

-----------------------------------------------------------------
Miss You  The Holdup
-----------------------------------------------------------------
Tabbed by: Brian Zucker
Email: bnzucker@comcast.net
Tuning: Standard
e|---------------------------------------------------------------|
B|-------------------------------------------7-------------------|
G|-------------6---------------------9---------------------------|
D|--7---------------------7--------------------------------------|
A|---------------------------------------------------------------|
E|---------------------------------------------------------------|
hit each note 16 times except 9 on G hit for 13 and 7 on B for 3

Chords
e|--5---5---5---5---2---2---2---2---5---5---5---5---7---7---7---7|
B|--5---5---5---5---2---2---2---2---7---7---7---7---9---9---9---9|
G|--6---6---6---6---2---2---2---2---7---7---7---7---9---9---9---9|
D|--7---7---7---7---4---4---4---4---7---7---7---7---9---9---9---9|
A|--7---7---7---7---4---4---4---4---5---5---5---5---7---7---7---7|
E|--5---5---5---5---2---2---2---2---x---x---x---x---x---x---x---x|


Tap to rate this tab
 
# A B C D E F G H I J K L M N O P Q R S T U V W X Y Z