The Holdup - Looks Is Deceiving chords

Highlighted       Show chord diagrams
-----------------------------------------------------------------
Looks Is Deceiving  The Holdup
-----------------------------------------------------------------
Tabbed by: Brian Zucker
Email: bnzucker@comcast.net
Tuning: Standard
   A#       F      A#      Dm
e|--1---1---1---1---6---6---5---5--------------------------------|
B|--3---3---1---1---6---6---6---6--------------------------------|
G|--3---3---2---2---7---7---7---7--------------------------------|
D|--3---3---3---3---8---8---7---7--------------------------------|
A|--1---1---3---3---8---8---5---5--------------------------------|
E|--x---x---1---1---6---6---x---x--------------------------------|
Tap to rate this tab
 
# A B C D E F G H I J K L M N O P Q R S T U V W X Y Z