Song name
# A B C D E F G H I J K L M N O P Q R S T U V W X Y Z

The Holdup - Back Then tab

The Holdup
Back Then
Confidence

standard tuning

Verse:

|--4---------3-------|                 |--33-|
|--6---------4-------|                 |--44-|
|--6-(x8)----5-(x8)--|                 |--55-|
|--6---------5-------|     end with    |--55-|
|--4---------3-------|                 |--33-|
|--------------------|                 |-----|


Chorus:

|--4---------3---------1---------4---------|       
|--6---------4---------2---------4---------|                 
|--6-(x4)----5-(x4)----3-(x4)----4-(x4)----|                
|--6---------5---------3---------6---------| 
|--4---------3---------1---------6---------|                
|--------------------------------4---------|     

guitar 2
|4-4-4-4-4-4-4-4-4-4-4-4-1-1-1-1-4-4-4-4-4-4-4-4-4-4-4-4-3-3-3-3----|
|-------------------------------------------------------------------|
|-------------------------------------------------------------------|
|-------------------------------------------------------------------|
|-------------------------------------------------------------------|
|-------------------------------------------------------------------|

Bridge is the same as chorus

Great song, enjoy it!

Tap to rate this tab
# A B C D E F G H I J K L M N O P Q R S T U V W X Y Z