Song name
# A B C D E F G H I J K L M N O P Q R S T U V W X Y Z

The Holdup - Stay Gold tab

Stay Gold
The Holdup
Stay Gold
2009

Intro

-----------------------------------|
|-----14-17------------14-17-------|
|--14-------14------14-------14----|
|----------------------------------|
|----------------------------------|
|----------------------------------|


|--------------/9--------------/9---------------/9-----------------|
|--10-------------10---------------12--10-----------10-------------|
|------------------------------------------------------------------|
|------------------------------------------------------------------|
|------------------------------------------------------------------|
|------------------------------------------------------------------|

Verse

|------------------------------------14-17----14-17--------------|
|-----14-17------------14-17------15-------15-----------14-17----|
|--14-------14------14-------14----------------------14-------14-|
|----------------------------------------------------------------|
|----------------------------------------------------------------|
|----------------------------------------------------------------|
|
|
|---------------/9-------------------------------/9--------------|
|-------------------10------------------------------10-----------|
|----------------------------------------------------------------|
|----------------------------------------------------------------|
|----------------------------------------------------------------|
|----------------------------------------------------------------|

                                             ______
*Sometimes this part that is underlined varies a little bit but it should be very easy 
to figure it out

Chorus
We don't want no part of this.....
|---5------5------5------5------7------7------5-------5--|
|---5------5------7------7------9------9------7-------7--|
|---6------6------7------7------9------9------7-------7--|
|---7------7------7------7------9------9------7-------7--|
|---7------7----5-5-5--5-5-5--7-7-7--7-7-7--5-5-5--5-5-5-|
|-5-5-5--5-5-5-------------------------------------------|
  .   .  .   .  .   .  .   .  .   .  .   .  .   .  .   .
p.m.

She's a girl and all she want to do...
|--5---5---5---5---7---7---5---5--|
|--5---5---7---7---9---9---7---7--|
|--6---6---7---7---9---9---7---7--|
|--7---7---7---7---9---9---7---7--|
|--7---7---5---5---7---7---5---5--|
|--5---5--------------------------|


Stayyyyyy Golddd
|--/12-12121212---10--9--------9----/1212121212---10--9--------9---|
|--/14-14141414---12--10--10--10----/1414141414---12--10--10--10---|
|-------------------------11------------------------------11-------|
|------------------------------------------------------------------|
|------------------------------------------------------------------|
|------------------------------------------------------------------|

|--/1717171717---15--14------14-----/1212121212--10--9---------9---|
|--/1919191919---17--15--15--15-----/1414141414--12--10---10--10---|
|------------------------16-------------------------------11-------|
|------------------------------------------------------------------|
|------------------------------------------------------------------|
|------------------------------------------------------------------|


Staaaaaaaaayyyyyyyyyyyyyy Goooooooooooldddddd!
Tap to rate this tab
# A B C D E F G H I J K L M N O P Q R S T U V W X Y Z