Song name
# A B C D E F G H I J K L M N O P Q R S T U V W X Y Z

The Holdup - Hunnies tab

Song: Hunnies
Artist: The Holdup
Album: Stay Gold

Tabbed by zaprox913


Chord progression, played throughout:

e|--2--2--7--9--------------|
B|--4--4--9--11-------------|
G|--4--4--9--11-------------|
D|--------------------------|
A|--------------------------|
E|--------------------------|
*Reggae upstrokes


Palm-muted along with the bass line throughout:

e|-----------------------------|
B|-----------------------------|
G|-----------------------------|
D|--------------9--------------|
A|-----------------7-7-7-9-----|
E|-7-7-7----7--------------7---|


Palm-muted along with the bass line:
(2:08)
e|------------------------------|
B|------------------------------|
G|------------------------------|
D|--------------6-9----8-11-9---|
A|-----6-7-9--7------9----------|
E|--7---------------------------|
Tap to rate this tab
# A B C D E F G H I J K L M N O P Q R S T U V W X Y Z