Song name
# A B C D E F G H I J K L M N O P Q R S T U V W X Y Z

The Holloways - Malcontented One tab

Band-The holloways
Song-Malcontented one
Album- So this is great britain
E-mail-Greenday_rhcp2002@yahoo.co.uk
Tabbed-Greenday2003

Again-This is the general idea-Correction and comments welcome
Listen to song for timing and rhythm-use barre chords if preferred

Lead-Add some slides or what not
|-----------------------------------|
|-17-16--------------17-16----------|
|-------16-9-8-11-9--------16-9-8-9-|
|-----------------------------------|
|-----------------------------------|
|-----------------------------------|Repeated tru out


Verse                 Verse Cont
|---------------|    |----------------|
|-8---8---------|    |----------------|
|-9-8-9-8-6-4---|    |-9--------------|
|-9-9-9-9-6-4-2-|    |-9-9-11-9-7-7-9-|
|-7-9-7-9-4-2-2-|    |-7-9-11-9-7-7-9-|
|---7---7-----0-|x3  |---7--9-7-5-5-7-|x1


intro/Preverse/post verse
|-----------|
|-8---8-(8)-|
|-9-8-9-(9)-|
|-9-9-9-(9)-|
|-7-9-7-(7)-|
|---7-------|x4 less bracket 4th time


Repeat Verse


I am a disapp
|----------|      |---------------------|
|----------|      |---------------------|
|-9--------|      |---------------------|
|-9-9-11-9-|      |-11-11-11-11-7-7-9-9-|
|-7-9-11-9-|      |-11-11-11-11-7-7-9-9-|
|---7--9-7-|x3    |--9--9--9--9-5-5-7-7-|x1


Repeat verse

Outro
|-------|      |----------------|
|-8---8-|      |-8--------------|
|-9-8-9-|      |-9-8------------|
|-9-9-9-|      |-9-9-7-7-7-7--7-|
|-7-9-7-|      |-7-9-7-7-7-7--7-|
|---7---|x3    |---7-5-5-5-5--5-|x1

And your finished
Tap to rate this tab
 
# A B C D E F G H I J K L M N O P Q R S T U V W X Y Z