Guitaretab - guitar tabs
Song name
# A B C D E F G H I J K L M N O P Q R S T U V W X Y Z

The Holly Springs Disaster - Up In Smoke tab

the holly springs disaster - up in smoke
drop c

x - mute
 - palm mute
^ - bend

this tab was rushed so theres deff gonna be some problems
motion sickness love niga

D --------------------|------------3h4p3-----|
A --------------------|------------------6-3-|
F --------5-7---------|--------5-7-----------|
C -0-3-xx-x/x-3-4-3-4-|-0-3-xx-x/x-----------|
G -0-3-xx-3-5-3-4-3-4-|-0-3-xx-3-5-----------|
C -0-3-xx-----3-4-3-4-|-0-3-xx---------------|

D ----------------------------------|
A ----------------------------------|
F ---------------------------|
C -0-3p0-3p0-000----0-3p0-3p0-00-00-|
G -0---------000-^--0---------00-00-|
C -0---------000-6--0---------00-00-|
[ Tab from: http://www.guitaretab.com/t/the-holly-springs-disaster/154738.html ]
D ----------------------------------------|
A ------------------------------------4-4-|
F --------5-7-----------------5-7-----7-7-|
C -0-3-xx-x/x-3-4-3-4--0-3-xx-x/x-3-4-----|
G -0-3-xx-3-5-3-4-3-4--0-3-xx-3-5-3-4-----|
C -0-3-xx-----3-4-3-4--0-3-xx-----3-4-----|

           guit 1          guit 2
D --------|---------------|---------------|
A --------|-----66--------|-----44--------|
F ---|--99---|--77---|
C -000-00-|-000----000-00-|-000----000-00-|
G -000-00-|-000----000-00-|-000----000-00-|
C -000-00-|-000----000-00-|-000----000-00-|

D-------------------|---------------------|
A-------------------|---------------------|
F-10----------------|-10------------------|
C-x--7-8--10-12-3-0-|-x--7-8--10-12-15-12-|
G-8--7-8--10-12-3-0-|-8--7-8--10-12-15-12-|
C----7-8--10-12-3-0-|----7-8--10-12-15-12-|

D---------------------------|----|------|
A---------------------------|----|------|
F---------------------------|--|--|
C---------------------------|-00-|-0000-|
G-----5-------------3-------|-00-|-0000-| repeats
C-0-6---6-5-3-0-3-5---5-3-5-|-00-|-0000-|
Related for Up In Smoke tab