Guitaretab - guitar tabs
Song name
# A B C D E F G H I J K L M N O P Q R S T U V W X Y Z

The Honey Brothers - Monkeywrencher Love Song tab

Monkeywrencher Love Song by The Honey Brothers (Website http://thehoneybrothers.com)
Album Songs for Your Sister (Winter Tour EP)
Tabbed by Andrew Y
email me at andrew.yedlin@gmail.com to contact me
this is my first tab so please send me feedback or corrections

Standard Tuning

G               Bm               Am         Bm
I wasn't gonna tell you everything,
           C                                 Am
When I saw chocolate in your hair,
                    D
I knew you weren't so sweet, you weren't so sweet

G               Bm                  Am                   Bm
I wasn't gonna look at your wedding ring,
         C                  Am
but you smiled and said you knew him,
       D
in the back of the car, the back of the car

Chorus

Em             Bm           C
Now that were living in a van,
       Bm       Em
i dont care anymore
         Bm                      C
you sell beads to hippies on the beach
        C
and im painting presidents on the pavement


G              Bm                   Am           Bm
I wasnt gonna throw a brick through mcdonalds,
        C                   Am
but you told me that your sister
              D
was born with birth defects, she had two sex
[ Tab from: http://www.guitaretab.com/t/the-honey-brothers/83836.html ]
G               Bm       Am          Bm
I wasn't gonna show you everything
        C                  Am
But you mentioned that you loved me
      D
while you were asleep, thats not too deep

Chorus

Em             Bm           C
Now that were living in a van,
       Bm       Em
i dont care anymore
         Bm                      C
you sell beads to hippies on the beach
        C
and im painting presidents on the pavement X 2

*Solo*
 |x|----------------------------------------------------------------|
 |x|----------------------------------------------------------------|
 |x|----------------------------------------------------------------|
 |x|------------------------------2--0-----0---2---5---4---2---0----|
 |x|------------2-----2---------------------------------------------|
 |x|3----3--5------------5----3-------------------------------------|

 |x|---------------------------------------------------------|
 |x|---------------------------------------------------------|
 |x|---------------------------------------------------------|
 |x|---------------------------------------------------------|
 |x|3---2---0----0-----2--0--0-------------------------------|
 |x|-----------3-----3------------0--3---22---2---0---2-----|

Chorus

Em             Bm           C
Now that were living in a van,
       Bm       Em
i dont care anymore
         Bm                      C
you sell beads to hippies on the beach
        C
and im painting presidents on the pavement X3 yea

the freak out part is played over Dm and A
Related for Monkeywrencher Love Song tab