Song name
# A B C D E F G H I J K L M N O P Q R S T U V W X Y Z

The Honey Tongue Devils - All Tall And The Melting Moon tab

I thought that the beginning of this song was easy and fun to play,so here it is:

E-----------------------------------------------------------------------|
B-----------------------------------------------------------------------|
G-----------------------------------------------------------------------|
D-12/14--14--14/12--12--12/11--11---11/9--9---9/7---7--7/6---6----6/4---|
A-----------------------------------------------------------------------|
E------0----0------0---0------0---0------0---0---0---0-----0---0------0-|

E-----------------------------------------------------------------------|
B-----------------------------------------------------------------------|
G-----------------------------------------------------------------------|
D-4---4/2----2----------------------------------------------------------|
A-----------------------------------------------------------------------|
E--0------0----0--------------------------------------------------------|

You just repeat this a couple times.
/=slide

This is my first tab by the way!:)
Tap to rate this tab
# A B C D E F G H I J K L M N O P Q R S T U V W X Y Z