Song name
# A B C D E F G H I J K L M N O P Q R S T U V W X Y Z

The Honey Trees - Wake The Earth tab

"Wake The Earth"
The Honey Trees

This tab should be pretty accurate. I'll update it for better accuracy 
when I can find the time, but this should be 98% accurate now. 

Capo 3rd fret
Standard tuning

INTRO/VERSE
A minor    G major  C major  F major
|-------------------0------------------------|
|-1-----1--0-----0----1---1--1-----1-----1---|
|---2--------0----------0------2-----2-----2-|
|-----2--------0-----------------3-----3-----|
|-0-----------------3--------3---------------|
|----------3---------------------------------|

CHORUS
D minor    F major          A minor  G major
|-1-----1---------------------------------------------|
|---3------1-----1-----1----1-----1--0-----0-----0----|
|-----2------2-----2-----2----2--------0-----0-----0--|
|-0------------3-----3----------2--------0-----0------|
|----------3----------------0-------------------------|
|------------------------------------3----------------|

D minor    F major          C major  E minor
|-1-----1-------------------0------------------------|
|---3------1-----1-----1------1---1--0-----0-----0---|
|-----2------2-----2-----2------0------0-----0-----0-|
|-0------------3-----3-------------------2-----2-----|
|----------3----------------3--------2---------------|
|----------------------------------------------------|

A minor    G major  A minor
|-----------------------------------|
|-1-----1--0-----0--1-----1-----1---|
|---2--------0--------2-----2-----2-|
|-----2--------0--------2-----2-----|
|-0-----------------0---------------|
|----------3------------------------|

INTERLUDE (between CHORUS and INTRO/VERSE)
A minor
|-----------------|
|-1-----1-----1---|
|---2-----2-----2-|
|-----2-----2-----|
|-0---------------|
|-----------------|

OUTRO x2
A minor    E minor          G maj  A minor
|--------------------------------------------------|
|-1-----1--0-----0-----0----0------1-----1-----1---|
|---2--------0-----0-----0----0------2-----2-----2-|
|-----2--------2-----2----------0------2-----2-----|
|-0--------2-----------------------0---------------|
|---------------------------3----------------------|

Song Order:
INTRO (0:04-0:22)
VERSE 1(0:22-1:00)
CHORUS (1:01-1:32)
INTERLUDE (1:33-1:35)
VERSE 2 (1:36-2:13)
CHORUS (2:14-2:38)
OUTRO (2:39-2:58)
Tap to rate this tab
# A B C D E F G H I J K L M N O P Q R S T U V W X Y Z