Song name
# A B C D E F G H I J K L M N O P Q R S T U V W X Y Z

The Honorary Title - Thin Layer tab

----------------------------------------------------------------------------
			     Thin Layer - The Honorary Title
----------------------------------------------------------------------------
Tabbed by: aslam3
Email:

Tuning: Standard
**I'm not showing strumming..you can hear the changes easily
Intro and Verse
    C          E          F         G
e|--0----------0----------1---------3---------------------------------------|
B|--1----------0----------1---------3---------------------------------------|
G|--0----------1----------2---------0---------------------------------------|
D|--2----------2----------3---------0---------------------------------------|
A|--3----------2----------3---------2---------------------------------------|
E|--0----------0----------1---------3---------------------------------------|

Chorus
       C          Am        E       F
e|-----0-----------0--------0-------1---------------------------------------|
B|-----1-----------1--------0-------1---------------------------------------|
G|-----0-----------2--------1-------2---------------------------------------|
D|-----2-----------2--------2-------3---------------------------------------|
A|-----3-----------0--------2-------3---------------------------------------|
E|-----0--------------------0-------1---------------------------------------|
*During the Am, you can hear a variation halfway before swithing to E.
The variation is to put your pinky on the 3rd fret of the B string.
So the chord is this (from E to e):  X02230

Ending (2:51 through end)
       C        G       Am       F
e|-----0--------3--------0-------1------------------------------------------|
B|-----1--------3--------1-------1------------------------------------------|
G|-----0--------0--------2-------2------------------------------------------|
D|-----2--------0--------2-------3------------------------------------------|
A|-----3--------2--------0-------3------------------------------------------|
E|-----0--------3----------------1------------------------------------------|

After going through this the last time,
Jarrod plays and F from 3:58 to the end.

| /  slide up
| \  slide down
| h  hammer-on
| p  pull-off
| ~  vibrato
| +  harmonic
| x  Mute note
===============================================================================
Tap to rate this tab
# A B C D E F G H I J K L M N O P Q R S T U V W X Y Z