Song name
# A B C D E F G H I J K L M N O P Q R S T U V W X Y Z

The Honorary Title - Untouched And Intact tab

----------------------------------------------------------------------------
	            Untouched and Intact - The Honorary Title
----------------------------------------------------------------------------
Tabbed by: adslam3
Email:

Tuning: Standard

Intro
e|-11-----------9-------------6-----------7---------------------------------|
B|-12-----------9-------------7-----------7---------------------------------|
G|-13---(x5)----11---(x5)-----8---(x5)----9---(x5)--------------------------|
D|-13-----------11------------8-----------9---------------------------------|
A|-11-----------9-------------6-----------7---------------------------------|
E|--------------------------------------------------------------------------|

Verse
Palm mute the first two times through!!
e|-7------------9------------7----------------------------------------------|
B|-7------------9------------7----------------------------------------------|
G|-8------------10-----------9---(x16)--------------------------------------|
D|-9---(x8)-----11---(x8)----9----------------------------------------------|
A|-9------------11-----------7----------------------------------------------|
E|-7------------9-----------------------------------------------------------|

Chorus
e|-2-----------6-------------7----------------------------------------------|
B|-2-----------6-------------7----------------------------------------------|
G|-4---(x8)----8---(x4)------9---(x4)---------------------------------------|
D|-4-----------8-------------9----------------------------------------------|
A|-2-----------6-------------7----------------------------------------------|
E|--------------------------------------------------------------------------|
Back to Intro and Verse

Pre-Bridge riff thing
**NOTE: I'm not sure
e|--------------------------------------------------------------------------|
B|--------------------------------------------------------------------------|
G|--------------------------------------------------------------------------|
D|-9------------11----------------------------------------------------------|
A|-11---(x8)----13----(x8)--------------------------------------------------|
E|--------------------------------------------------------------------------|

Bridge
**First two times through, just strum once.
e|--9-----------9----------11---------7-------------------------------------|
B|--9-----------9----------12---------7-------------------------------------|
G|--8-----------10---------13---------9-------------------------------------|
D|--9---(x8)----11---(x8)--13---(x8)--9---(x8)------------------------------|
A|--9-----------11---------11---------7-------------------------------------|
E|--7-----------9-----------------------------------------------------------|

Back to Chorus for the rest of the song
End on:
e|----2---------------------------------------------------------------------|
B|----2---------------------------------------------------------------------|
G|----4---------------------------------------------------------------------|
D|----4---------------------------------------------------------------------|
A|----2---------------------------------------------------------------------|
E|--------------------------------------------------------------------------|

| /  slide up
| \  slide down
| h  hammer-on
| p  pull-off
| ~  vibrato
| +  harmonic
| x  Mute note
===============================================================================
Tap to rate this tab
# A B C D E F G H I J K L M N O P Q R S T U V W X Y Z