Song name
# A B C D E F G H I J K L M N O P Q R S T U V W X Y Z

The Honorary Title - The Citys Summer tab

----------------------------------------------------------------------------
		The City's Summer - The Honorary Title
----------------------------------------------------------------------------
Tabbed by: adslam3
Email:

Tuning: Standard

Intro/Chorus
    F          C         G          Am
e|--1----------0---------0----------0---------------------------------------|
B|--1----------1---------3----------1---------------------------------------|
G|--2----------0---------0----------2---------------------------------------|
D|--3----------2---------0----------2---------------------------------------|
A|--3----------3---------2----------0---------------------------------------|
E|--1----------0---------3--------------------------------------------------|
    Na, na     na, na    na, na     na, na, na
(basically switch after two "na's" lol)

Verse (part 1)
e|-1-1----0-0----3-3--------------------------------------------------------|
B|-1-1----1-1----3-3--------------------------------------------------------|
G|-2-2----2-2----4-4--(5)~-(4)~---------------------------------------------|
D|-3-3----2-2----5-5--(5)~-(4)~---------------------------------------------|
A|-3-3----0-0----5-5---3~---2~----------------------------------------------|
E|-1-1-----------3-3--------------------------------------------------------|
Parenthetical notes are optional, but i don't think he uses them

Verse Part 2 (0:27)
*Strumming not shown, but sounds like 8 times for each chord. just listen
   F   C  G  Am
e|-1---0--0--0--------------------------------------------------------------|
B|-1---1--3--1--------------------------------------------------------------|
G|-2---0--0--2--------------------------------------------------------------|
D|-3---2--0--2--------------------------------------------------------------|
A|-3---3--2--0--------------------------------------------------------------|
E|-1---0--3-----------------------------------------------------------------|

Back to chorus (F, C, G, Am)
Then verse parts again
Back to chorus

Bridge Part 1
Play this part 2 times
e|-0~-----1~----0~---0~-----------------------------------------------------|
B|-1~-----1~----1~---3~-----------------------------------------------------|
G|-2~-----2~----0~---0~-----------------------------------------------------|
D|-2~-----3~----2~---0~-----------------------------------------------------|
A|-0~-----3~----3~---2~-----------------------------------------------------|
E|--------1~----0~---3~-----------------------------------------------------|

Bridge Part 2
This part once
e|--0-0----1-1----0-0----0-0------------------------------------------------|
B|--1-1----1-1----1-1----3-3------------------------------------------------|
G|--2-2----2-2----0-0----0-0------------------------------------------------|
D|--2-2----3-3----2-2----0-0------------------------------------------------|
A|--0-0----3-3----3-3----2-2------------------------------------------------|
E|---------1-1----0-0----3-3------------------------------------------------|

Bridge Part 3
Strumming not shown...sounds like 8 times for each chord again
e|-0-------1-----0----0-----------------------------------------------------|
B|-1-------1-----1----3-----------------------------------------------------|
G|-2-------2-----0----0-----------------------------------------------------|
D|-2-------3-----2----0-----------------------------------------------------|
A|-0-------3-----3----2-----------------------------------------------------|
E|---------1-----0----3-----------------------------------------------------|

Bridge Part 4
e|--------------------------------------------------------------------------|
B|--------------------------------------------------------------------------|
G|--------------------------------------------------------------------------|
D|-3-3-2-2-0-0--------------------------------------------------------------|
A|-------------0-0-7-7-5-5-3-3-0-0-5-5-3-3-2-2-0-0-3-3-2-2-0-0--------------|
E|--------------------------------------------------------------------------|

And then back to chorus for the rest of the song.
- I got this from watching a video so it's pretty spot on.
I'm just not 100% about Bridge Part 4, but this seems real close.
If you have any other ideas, send me a message and i'll make the correction
and give you credit. Thanks!
~ = let ring
( ) = parenthetical notes are optional
============================================================================
Tap to rate this tab
 
# A B C D E F G H I J K L M N O P Q R S T U V W X Y Z