Song name
# A B C D E F G H I J K L M N O P Q R S T U V W X Y Z

The Honorary Title - Finally Understand tab

----------------------------------------------------------------------------
		    Finally Understand - The Honorary Title
----------------------------------------------------------------------------
Tabbed by: adslam3
Email:

Tuning: Standard
*NOTE: like with most of my tabs, i'm not showing strumming.

Intro/Verse

     E      Aadd9      C#m   B7
e|---0-------0---------4-----2----------------------------------------------|
B|---0-------0---------5-----4----------------------------------------------|
G|---1-------2---------6-----2----------------------------------------------|
D|---2-------2---------6-----4----------------------------------------------|
A|---2-------0---------4-----2----------------------------------------------|
E|---0----------------------------------------------------------------------|
The intro is fingerpicked.  If you want, try throwing in a few hammer-ons on the D 
for the E and Aadd9 like he does, you can hear it.

Pre-Chorus (x2) (0:28-0:47)
     E      B7      C#m      A
e|---0------2-------4--------5----------------------------------------------|
B|---0------4-------5--------5----------------------------------------------|
G|---1------2-------6--------6----------------------------------------------|
D|---2------4-------6--------7----------------------------------------------|
A|---2------2-------4--------7----------------------------------------------|
E|---0-----------------------5----------------------------------------------|

Pre-Chorus Part 2  (0:48-0:54)

    Am      F#       E
e|--5~------2~-------0~-----------------------------------------------------|
B|--5~------2~-------0~-----------------------------------------------------|
G|--5~------3~-------1~-----------------------------------------------------|
D|--7~------4~-------2~-----------------------------------------------------|
A|--7~------4~-------2~-----------------------------------------------------|
E|--5~------2~-------0~-----------------------------------------------------|
**At 0:57, he's still play that E chord, but to get that deep note, use your
pinky to hit the 4th fret on the big E string

Chorus (x2)
    E      B7      F#m      A   B
e|--0------2-------2--------5---7-------------------------------------------|
B|--0------4-------2--------5---7-------------------------------------------|
G|--1------2-------2--------6---8-------------------------------------------|
D|--2------4-------4--------7---9-------------------------------------------|
A|--2------2-------4--------7---9-------------------------------------------|
E|--0--------------2--------5---7-------------------------------------------|
After this, go back to verse, pre-choruses, and chorus.

At 2:37, the Ending of the Second Chorus is as follows:
     C#m       A      B
e|---4---------5------7-----------------------------------------------------|
B|---5---------5------7-----------------------------------------------------|
G|---6---------6------8-----------------------------------------------------|
D|---6---------7------9-----------------------------------------------------|
A|---4---------7------9-----------------------------------------------------|
E|-------------5------7-----------------------------------------------------|

Bridge (2:42-3:02)
      A?      A      B      E7
e|----5-------5------7------7-----------------------------------------------|
B|----5-------5------7------9-----------------------------------------------|
G|----7-------6------8------7-----------------------------------------------|
D|----6-------7------9------9-----------------------------------------------|
A|----7-------7------9------7-----------------------------------------------|
E|---(7)------5------7------------------------------------------------------|
To get the tricky A?: your index finger barres e and B.
Middle finger on the D. Ring finger on the A string.
Pinky on the G. and get that 7th fret on the E string with you thumb.
If you cannot reach it, then leave the top string open.

End (x2)(3:20)
      Aadd9      E      C#m      A
e|----0----------0------4--------5------------------------------------------|
B|----0----------0------5--------5------------------------------------------|
G|----2----------1------6--------6------------------------------------------|
D|----2----------2------6--------7------------------------------------------|
A|----0----------2------4--------7------------------------------------------|
E|---------------0---------------5------------------------------------------|
I can't quite hear it, but that Aadd9 might be an Am (x02210)

Ending Part 2 (3:41-End)
     Am      F#      Esus      E
e|---5-------2-------0---------0--------------------------------------------|
B|---5-------2-------0---------0--------------------------------------------|
G|---5-------3-------2---------1--------------------------------------------|
D|---7-------4-------2---------2--------------------------------------------|
A|---7-------4-------2---------2--------------------------------------------|
E|---5-------2-------0---------0--------------------------------------------|

| /  slide up
| \  slide down
| h  hammer-on
| p  pull-off
| ~  vibrato
| +  harmonic
| x  Mute note
============================================================================
Tap to rate this tab
# A B C D E F G H I J K L M N O P Q R S T U V W X Y Z