Song name
# A B C D E F G H I J K L M N O P Q R S T U V W X Y Z

The Honorary Title - Only One Week tab

----------------------------------------------------------------------------
			   Only One Week - The Honorary Title
----------------------------------------------------------------------------
Tabbed by: adslam3
Email:

Tuning: Standard

Intro/ Verse
    E     C#m     A     B
e|--7------4------5-----7---------------------------------------------------|
B|--9------5------5-----7---------------------------------------------------|
G|--9------6------6-----8---------------------------------------------------|
D|--9------6------7-----9---------------------------------------------------|
A|--7------4------7-----9---------------------------------------------------|
E|----------------5-----7---------------------------------------------------|
For the verse, he mainly plucks the root note, then a quick upstroke.

Chorus
    A     F#m     B     C#m
e|--5------2------7------4--------------------------------------------------|
B|--5------2------7------5--------------------------------------------------|
G|--6------2------8------6--------------------------------------------------|
D|--7------4------9------6--------------------------------------------------|
A|--7------4------9------4--------------------------------------------------|
E|--5------2------7---------------------------------------------------------|

Verse again, then chorus again

Post-Chorus (at 1:57)
     A     B     F#m     C#m
e|---5-----7------2-------4-------------------------------------------------|
B|---5-----7------2-------5-------------------------------------------------|
G|---6-----8------2-------6-------------------------------------------------|
D|---7-----9------4-------6-------------------------------------------------|
A|---7-----9------4-------4-------------------------------------------------|
E|---5-----7------2---------------------------------------------------------|

Bridge (2:28)
     F#m     C#m     A     B
e|----2-------4------5-----7------------------------------------------------|
B|----2-------5------5-----7------------------------------------------------|
G|----2-------6------6-----8------------------------------------------------|
D|----4-------6------7-----9------------------------------------------------|
A|----4-------4------7-----9------------------------------------------------|
E|----2--------------5-----7------------------------------------------------|
On the last time through, keep strumming the B until 3:00 mark.

Bridget part 2 (at 3:00)
     A     B     A     B
e|---5~----7~----5~----7~---------------------------------------------------|
B|---5~----7~----5~----7~---------------------------------------------------|
G|---6~----8~----6~----8~---------------------------------------------------|
D|---7~----9~----7~----9~---------------------------------------------------|
A|---7~----9~----7~----9~---------------------------------------------------|
E|---5~----7~----5~----7~---------------------------------------------------|
Now go back to the post-chorus for the remainder of the song.
So you dont have to scroll up, the chords go: A, B, F#m, C#m.
End on an E chord, then this:
Little end part
e|-------------------------7------------------------------------------------|
B|-------------------------9------------------------------------------------|
G|-9/11~-11/13~---13/11~---9------------------------------------------------|
D|-9/11~-11/13~---13/11~---9------------------------------------------------|
A|-------------------------7------------------------------------------------|
E|--------------------------------------------------------------------------|
Thats it! if i missed something, then message me or leave a comment in the
comments section on this page. if you think something is wrong then
let me know there and i'll fix it and give you credit. thanks

| /  slide up
| \  slide down
| h  hammer-on
| p  pull-off
| ~  vibrato
| +  harmonic
| x  Mute note
============================================================================
Tap to rate this tab
# A B C D E F G H I J K L M N O P Q R S T U V W X Y Z