Song name
# A B C D E F G H I J K L M N O P Q R S T U V W X Y Z

The Honorary Title - No One Cover tab

----------------------------------------------------------------------------
		   No One (Cover) - The Honorary Title
----------------------------------------------------------------------------
Tabbed by: adslam3
Email:

Tuning: Standard

You can see Jarrod play this on a youtube video and some live performances. the
link is http://www.youtube.com/watch?v=OGLjj904gtA
It's fun to play. learn it and impress people with simplicity lol
The original song is by alecia keys

Verse/Chorus
NOTE: you can mess around with picking during the verses
     C     G     Am     F
e|---0-----3-----0------1---------------------------------------------------|
B|---1-----0-----1------1---------------------------------------------------|
G|---0-----0-----2------2---------------------------------------------------|
D|---2-----0-----2------3---------------------------------------------------|
A|---3-----2-----0------3---------------------------------------------------|
E|---0-----3------------1---------------------------------------------------|

Bridge
   Dm  Am  Dm  Am  Dm  Am  C  G  F
e|-1---0---1---0---1---0---0--3--1------------------------------------------|
B|-3---1---3---1---3---1---1--0--1------------------------------------------|
G|-2---2---2---2---2---2---0--0--2------------------------------------------|
D|-0---2---0---2---0---2---2--0--3------------------------------------------|
A|-----0-------0-------0---3--2--3------------------------------------------|
E|-------------------------0--3--1------------------------------------------|

| /  slide up
| \  slide down
| h  hammer-on
| p  pull-off
| ~  vibrato
| +  harmonic
| x  Mute note
============================================================================
Tap to rate this tab
# A B C D E F G H I J K L M N O P Q R S T U V W X Y Z