Song name
# A B C D E F G H I J K L M N O P Q R S T U V W X Y Z

The Honorary Title - Stay Away tab

-------------------------------------------------------------------------------
			     Stay Away - The Honorary Title
-------------------------------------------------------------------------------
Tabbed by: adslam3
Email:

Tuning: standard (capo on 5)

Put capo on 5th fret...this is how jarrod plays it live
Everything will be relative to the capo
Strumming not shown..you can hear the changes

Intro
e|---0------0------0-----2--------------------------------------------------|
B|---1------1------3-----3--------------------------------------------------|
G|---0------0------0-----2--------------------------------------------------|
D|---2------2------0-----0--------------------------------------------------|
A|---0------3------2-----x--------------------------------------------------|
E|---0------0------3-----x--------------------------------------------------|
     Am7    C      G     D

Verse
strum the first two chords 8 times
the G is strummed 16
e|---0-----0----0-----------------------------------------------------------|
B|---3-----1----3-----------------------------------------------------------|
G|---0-----0----0-----------------------------------------------------------|
D|---4-----2----0-----------------------------------------------------------|
A|---5-----3----2-----------------------------------------------------------|
E|---0-----0----3-----------------------------------------------------------|
* press down the 5th fret of the G string
on the last three strumms of the first chord
** do the same to the 3rd fret on the B string
on the second chord

Pre-Chorus
"Stay away from me...stay away from me now"
e|---0-------------------0--------------------------------------------------|
B|---1-------------------3--------------------------------------------------|
G|---0-------------------0--------------------------------------------------|
D|---2-------------------0--------------------------------------------------|
A|---3-------------------2--------------------------------------------------|
E|---0-------------------3--------------------------------------------------|

Chorus (same as intro but i'll write it again here)
"Now I can't dance..."
e|-----0-----0-----0-----2--------------------------------------------------|
B|-----1-----1-----3-----3--------------------------------------------------|
G|-----0-----0-----0-----2--------------------------------------------------|
D|-----2-----2-----0-----0--------------------------------------------------|
A|-----0-----3-----2-----x--------------------------------------------------|
E|-----0-----0-----3-----x--------------------------------------------------|
* on the last time before verse, play the last chord longer

Enjoy...i watched a video of him playing this so it should be all right

| /  slide up
| \  slide down
| h  hammer-on
| p  pull-off
| ~  vibrato
| +  harmonic
| x  Mute note
===============================================================================
Tap to rate this tab
 
# A B C D E F G H I J K L M N O P Q R S T U V W X Y Z