Song name
# A B C D E F G H I J K L M N O P Q R S T U V W X Y Z

The Honorary Title - The Smoking Pose tab

Help us improve GuitareTab! Take a short survey!
Highlighted       Show chord diagrams
----------------------------------------------------------------------------
	          The Smoking Pose - The Honorary Title
----------------------------------------------------------------------------
Tabbed by: adslam3
Email:

Tuning: Standard

Verses
     G          A         B          C      B
e|---3-3-3-3----5-5-5-5---7-7-7-7----8--8---7-7-----------------------------|
B|---3-3-3-3----5-5-5-5---7-7-7-7----8--8---7-7-----------------------------|
G|---4-4-4-4----6-6-6-6---8-8-8-8----9--9---8-8-----------------------------|
D|---5-5-5-5----7-7-7-7---9-9-9-9----10-10--9-9-----------------------------|
A|---5-5-5-5----7-7-7-7---9-9-9-9----10-10--9-9-----------------------------|
E|---3-3-3-3----5-5-5-5---7-7-7-7----8--8---7-7-----------------------------|
- If you want, you could also use other variations of these chords

Chorus (NOTE: Strumming not shown, you can hear it easily)
    G       Am      Bm     C
e|--3-------0-------2------0------------------------------------------------|
B|--3-------1-------3------1------------------------------------------------|
G|--0-------2-------4------0------------------------------------------------|
D|--0-------2-------4------2------------------------------------------------|
A|--2-------0-------2------3------------------------------------------------|
E|--3----------------------0------------------------------------------------|
You can also use barre chords instead if you wish.
-Then back to verse and chorus.

Bridge
    G     Am    Bm   C
e|--3~----5~----7~---8~-----------------------------------------------------|
B|--3~----5~----7~---8~-----------------------------------------------------|
G|--4~----5~----7~---9~-----------------------------------------------------|
D|--5~----7~----9~---10~----------------------------------------------------|
A|--5~----7~----9~---10~----------------------------------------------------|
E|--3~----5~----7~---8~-----------------------------------------------------|
- You could also play this part with open chords if you wish.
Then back to chorus for the rest of the song. The last chord in the song is
a G chord (355433 or 32033)
And that's it! This seems pretty close. Let me know if you think something
should be different and I'll change it and give you the credit. Enjoy.

| /  slide up
| \  slide down
| h  hammer-on
| p  pull-off
| ~  vibrato
| +  harmonic
| x  Mute note
============================================================================
Related for The Smoking Pose tab