Song name
# A B C D E F G H I J K L M N O P Q R S T U V W X Y Z

The Honorary Title - 7 Blocks tab

/*
BMAnderson90
Email: slappyk@live.com
The Honorary Title

This is the correct tab for the song.
Very easy to play.
------------------
7 Blocks

Song uses chords G D Em C //Intro is just normal chords
&
Main Riff (That sliding acoustic part {Down down up down})

e--------------------------------------------|
b--------------------------------------------|
g--0-0-0-0-0-0-0-0-0-0-0-0-0-0-0-0-----------|
D--5-5-5-5-4-4-4-4-2-2-2-2-2-2-2-2-----------|
A--5-5-5-5-5-5-5-5-2-2-2-2-3-3-3-3-----------|
E--0-0-0-0-0-0-0-0-0-0-0-0-0-0-0-0-----------|


Bridge:

e--------------------------------------------------|
b--------------------------------------------------|
g--0-0-0-0-----0-0-0-0--------0-0-0/0-0-0-0--------|
D--5-5-5-5-4-0-5-5-5-5-4-2-0--2-2-2/4-4-4-4--------|
A--5-5-5-5-----5-5-5-5--------2-2-2/4-4-4-4-----5--|
E--0-0-0-0-----0-0-0-0--------0-0-0/2-2-2-2-2-0----|


*/

/* INTRO

It was only seven blocks
Walking to the subway
You canít miss the tracks
Out here they're elevated
So you get a chance to breathe
But in the dead of winter
You just have to freeze

(MAIN RIFF);
But I never go out
Once I get home
Just seems pointless
To venture out alone
If I can just lure
You in here with me
Just say my name baby
Itís up and coming
I'm not being cheap
Iím just being poor
So call yourself a car
And cross the boulevard

MAIN Riff
Why donít you start thinking about
Coming home with me, coming home with me


PLAY BRIDGE x4

MAIN RIFF (all the way through)


But the radiators cold
The windows leaking winter
And weíre sleeping in our clothes
Creaking wooden floor
Trip to the bathroom
Louder than the sex before
The bed slowly travels down me
Incline of the room
The bed slowly travels down me
Incline of my room


Why donít you start thinking about
Coming home with me, coming home with me


And portions of the evening
Iím missing
Itís no mystery
I found receipts in the
The pieces that trace back to our fateful, yeah...

our meeting
Itís not easy
Finding someone else
When youíre still,
youíre still bleeding
Youíre still bleeding
I found someone else
I found someone else


Sheís coming home with,
Sheís coming home with
Sheís coming home with me.

You told me
The only
Reason you left
This is not my fault x2


This is not my fault
For never moving down
To New Orleans with you x2
Tap to rate this tab
# A B C D E F G H I J K L M N O P Q R S T U V W X Y Z