Song name
# A B C D E F G H I J K L M N O P Q R S T U V W X Y Z

The Honorary Title - Doesnt Make A Difference tab

Requires an E harmonic tuning EAEabe

Honestly Very Easy Song, the tab in itself should be enough of a guide, i'm going to
out the lyrics and assembly. Its pretty much in the order given, just listen to the song a
times and put it together. This is a basic tab too, I'm pretty sure Jarrod presses on a 
more strings for some more tone but this is all I got, I would appreciate further
 But this should suffice.

Artist: Jarrod Gorbel (The Honorary Title)
Style: Acoustic Rhythm w/ Guitar harmonic

Tabbed By: Brian Anderson
Contact: brian.m.anderson@hotmail.com


Intro:
E-000-0--0--00000000000000-2b----------------|
A-999-11-11-97676464242020-------------------|
E-000-------0--0-0--0-0-0--------------------|
a--------------------------------------------|
b--------------------------------------------|
e--------------------------------------------|

Verse 1:

E-0---0---0---0---|0---0---5---7--------------|
A--4-4-4-4-0-0-0-0|-4-4-4-4-0-0-0-0-----------|
E---0---0---0---0-|--0---0---0---0------------|
a-----------------|---------------------------|
b-----------------|---------------------------|
e-----------------|---------------------------|

Verse 2:
E-0-0--0-0-00000-000-|-0-0--0-0-00000-0000-------|
A-9-11-9s7-77777h970-|-9-11-9s7-77777h9797-------|
E-0-0--0-0-00000-000-|-0-0--0-0-00000-0000-------|
a--------------------|---------------------------|
b--------------------|---------------------------|
e--------------------|---------------------------|

Verse 3:

E-4444-5-555-9999-7777---------------|
A-0000-0-000-0000-0000---------------|
E-0000-0-000-0000-0000---------------|
a------------------------------------|
b------------------------------------|
e------------------------------------|

Verse 4:

E--00000-55555-9--9--9--9--9--7777-----------------|
A--77777-77777-11-11-11-11-11-9999-----------------|
E--------------------------------------------------|
a--------------------------------------------------|
b--------------------------------------------------|
e--------------------------------------------------|

Bridge:
E--00000-55555-9--9--9--9--9--75--------------------|
A--77777-77777-11-11-11-11-11-97--------------------|
E---------------------------------------------------|
a---------------------------------------------------|
b---------------------------------------------------|
e---------------------------------------------------|
Tap to rate this tab
# A B C D E F G H I J K L M N O P Q R S T U V W X Y Z